Cifra Club

Era Pra Ser Eu

Loubet

Cifra: Principal
exibições 132.301
Tom: E
Intro:  E  C#m

(Mesmo ritimo da música Te esperando-Luan Santana)

Solo Inicial:

E|--------------------------------------|
A|--------------------------------------|
D|--------------------------------------|
G|--------------------------------------|
B|---------0-0h2------------------------|
E|--4~2-0----------4-2------------------|

E           A                    F#m
Um dia à tarde, andando a toa na cidade
                E
Congelei ao ver você
               A                   F#m
Estava arrumando seu cabelo num espelho
               E
Sem ao menos perceber.
              A                  F#m
Já faz dois anos desde a ultima vez
                    C#m
E essa magoa que não passa
           A                       Am
Todos os planos e os sonhos de nós dois
             E
Hoje viraram fumaça.

              A                           B
Cheguei mais perto, vi um homem ao seu lado
              E        B/D#        C#m
Parecia apaixonado, te olhando com emoção
          A                   F#m
E uma criança te chamando de mamãe
               E   G#º
Com a chupeta na mão…
            A                    B
Era pra ser eu esse homem apaixonado
                   E    B/D#        C#m
Se o acaso não agisse com tamanha traição
          A                     Am
Mas a criança que estava ao seu lado
             E
É fruto da nossa paixão…

E|------------------------------------------|
A|------------------------------------------|
D|------------------------------------------|
G|------------------------/8-9-8---/6-7-6---|
B|---------0-0h2----------------------------|
E|--4~2-0----------4-2-----7-9-7----5-7-5---|

(Repete Tudo)

Solo Final:

E|---------------------------------|
A|---------------------------------|
D|---------------------------------|
G|------------------------4/--1----|
B|---------0-0h2-------------------|
E|--4~2-0----------4-2----4--0-----|
Acordes para:
    Colaboração e revisão:

    0 comentários

      mostrar mais comentários

      Conseguiu tocar?

      21tocaram0ainda não

      Grave um vídeo tocando Era Pra Ser Eu e mande pra gente!

      00:00 / 00:00
      outros vídeos desta música
      repetirqualidadeautomática
      Outro vídeos desta música
        00:00 / 00:00
        automática
        OK