Enviar cifraEntrar

Insana

Loubet

Cifra: Principal
exibições 167.438
Tom: A

     F#m
E|--------------------------|
B|-10---9-10-12-------------|
G|-11-------------6h7p6--7--|
D|-11-------------------9-9-|
A|--9-----------------------|
E|--------------------------|


E|----------------4-5/7-5-5p4-4-4-------------------|
B|------------5-7-----------------7-7\6-6-6-2-2h3p2-|
G|------4-6-7---------------------------------------|
D|-4-5-7--------------------------------------------|


E|----------------------------------4----------------------------------
B|----------------------------5-5-7---7-5---5-7-5-5/7-7--7\5-5-5\3-3-3-
G|----2-----2-----2-4-4/6--4/6-6----------6----------------------------
D|-2h4-4-2h4-4-2h4-----------------------------------------------------


E|-------------------|
B|-------------------|
G|---------4-4h6p4---|
D|-----4-6---------6-|
A|-2/4---------------|
E|-------------------|


F#m              C#m        Bm
Sua imagem me flerta, me acerta uma flecha
    C#7
Que não consigo escapar
F#m             C#m       Bm
Sua miragem me engana e acende uma chama
 C#7
Dentro do meu olhar
F#m                 C#m      Bm
Tento fugir, não consigo, o perigo me assola,
   C#7
Me devolve pra você
F#m                   C#m
Tento buscar um abrigo,
       Bm                C#7
Mas duvido que um dia eu possa te esquecer

Refrão:

F#m                           E
Pega, rasga a minha blusa, me joga na cama,
 D       C#7
Me ama e vamos ser feliz
F#m                     E                         D
Mesmo que você me iluda, meu corpo te chama, insana,
   C#7
É tudo que eu sempre quis


E|----------------------------------4----------------------------------
B|----------------------------5-5-7---7-5---5-7-5-5/7-7--7\5-5-5\3-3-3-
G|----2-----2-----2-4-4/6--4/6-6----------6----------------------------
D|-2h4-4-2h4-4-2h4-----------------------------------------------------


E|--------------------------5-----5--7\4-4--------------|
B|-----------------------------------------10\7-7-7\2---|
G|-4/6-6-6\4-4-4\2-2-2--4/6---6-6-----------------------|
D|------------------------------------------------------|


E|--------------------|
B|-------------6-7/9--|
G|---------4-6--------|
D|-----4-6------------|
A|-2/4----------------|
E|--------------------|


F#m                C#m           Bm
Em outro vocabulário, não sou páreo
              C#7
Pro seu jeito de me conquistar
F#m               C#m        Bm
Você me hipnotiza quando pisa em meu peito
  C#7
E começa a dançar

F#m              C#m        Bm               C#7
Objeto descartável eu me sinto, mas como poder te evitar?
F#m            C#m            Bm           C#7
Desejo incontrolável me oprimindo, então o jeito é me entregar

Refrão:

F#m                           E
Pega, rasga a minha blusa, me joga na cama,
 D       C#7
Me ama e vamos ser feliz
F#m                     E                         D
Mesmo que você me iluda, meu corpo te chama, insana,
   C#7
É tudo que eu sempre quis


E|----------------------------------4----------------------------------
B|----------------------------5-5-7---7-5---5-7-5-5/7-7--7\5-5-5\3-3-3-
G|----2-----2-----2-4-4/6--4/6-6----------6----------------------------
D|-2h4-4-2h4-4-2h4-----------------------------------------------------


E|-7/9-9-9\7-7-7\5-5-5---5/7-7-7\5-5-5\4-4-4---4/5-5-5\4-4-4\2-2-2--|
B|------------------------------------------------------------------|


                         F#m
E|-----------------------|
B|--------------------10-|
G|---------4-4h6p4----11-|
D|-----4-6---------6--11-|
A|-2/4----------------9--|
E|-----------------------|
  • 1
  • 2
  • 3
  • 4
  • 5
  • 6
  • 7
  • 8
  • 9
  • 10
  • 11
  • 12
    Acordes para:
      Colaboração e revisão:

      0 comentários

        mostrar mais comentários

        Conseguiu tocar?

        22tocaram1ainda não

        Grave um vídeo tocando Insana e mande pra gente!

        00:00 / 00:00
        outros vídeos desta música
        repetirqualidadeautomática
        • automática
        Outro vídeos desta música
          00:00 / 00:00
          automática
          • automática
          Acordes para:violão e guitarra
          dificuldadeexibiçõescontribuições
          fecharplay/pause subir/descer velocidade
            acordes
            fechar
            OK
            Feedback