Losudnee

Loudness

tom: E
e|-0-0-2-4-5-4-2-0---------0-0---|
B|-----------------4-0-2-4-------|
G|-------------------------------|
D|-------------------------------|
A|-------------------------------|
E|-------------------------------|

e|-------------------------------|
B|-2-4-2-0-2-4-5---0-2-----0-----|
G|---------------------2-1-------|
D|-------------------------------|
A|-------------------------------|
E|-------------------------------|

e|-------------------------4-0-0-|
B|-0-2-0---0-2-4---0-2-0-2-------|
G|-------2-----------------------|
D|-------------------------------|
A|-------------------------------|
E|-------------------------------|


Página 1 / 1

Letras e título
Acordes e artista

resetar configurações
OK