Cifra Club

Aprenda

Un día en el parque

Love of Lesbian

Cifra: Principal (violão e guitarra)
tom: C
     C
E|---------------------------------------------------|
B|---------1--------1------------1----------1--------|
G|-------0--------0------------0----------0----------|
D|-----------0h2--------------------0h2--------------|
A|-3---------------------3---------------------------|
E|---------------------------------------------------|

E|---------------------------------------------------|
B|---------1--------1------------1----------1--------|
G|-------0--------0------------0----------0----------|
D|-----------0h2--------------------0h2--------------|
A|-3---------------------3---------------------------|
E|---------------------------------------------------|

   "Ha sido una mañana..."
E|---------------------------------------------------|
B|---------1--------1------------1----------1--------|
G|-------0--------0------------0----------0----------|
D|-----------0h2--------------------0h2--------------|
A|-3---------------------3---------------------------|
E|---------------------------------------------------|

E|---------------------------------------------------|
B|---------1--------1------------1----------1--------|
G|-------0--------0------------0----------0----------|
D|-----------0h2--------------------0h2--------------|
A|-3---------------------3---------------------------|
E|---------------------------------------------------|

     Am
E|---------------------------------------------------|
B|---------1--------1------------1----------1--------|
G|-------2--------2------------2----------2----------|
D|-----------0h2--------------------0h2--------------|
A|-0---------------------0---------------------------|
E|---------------------------------------------------|

E|---------------------------------------------------|
B|---------1--------1------------1----------1--------|
G|-------2--------2------------2----------2----------|
D|-----------0h2--------------------0h2--------------|
A|-0---------------------0---------------------------|
E|---------------------------------------------------|

     G
E|---------------------------------------------------|
B|---------3--------3------------3----------3--------|
G|-------0--------0------------0----------0----------|
D|---------------------------------------------------|
A|-----------0h2--------------------0h2--------------|
E|-3---------------------3---------------------------|

E|---------------------------------------------------|
B|---------3--------3------------3----------3--------|
G|-------0--------0------------0----------0----------|
D|---------------------------------------------------|
A|-----------0h2--------------------0h2--------------|
E|-3---------------------3---------------------------|

     F
E|---------------------------------------------------|
B|---------1----------1---------1----------1---------|
G|-------2-----0h2------------2-----0h2--------------|
D|---------------------------------------------------|
A|---------------------------------------------------|
E|-1---------------------1---------------------------|

     C
E|---------------------------------------------------|
B|---------1--------1------------1----------1--------|
G|-------0--------0------------0----------0----------|
D|-----------0h2--------------------0h2--------------|
A|-3---------------------3---------------------------|
E|---------------------------------------------------|

E|---------------------------------------------------|
B|---------1--------1------------1----------1--------|
G|-------0--------0------------0----------0----------|
D|-----------0h2--------------------0h2--------------|
A|-3---------------------3---------------------------|
E|---------------------------------------------------|

   "Si de todos mis delirios..."
E|---------------------------------------------------|
B|---------1--------1------------1----------1--------|
G|-------0--------0------------0----------0----------|
D|-----------0h2--------------------0h2--------------|
A|-3---------------------3---------------------------|
E|---------------------------------------------------|

E|---------------------------------------------------|
B|---------1--------1------------1----------1--------|
G|-------0--------0------------0----------0----------|
D|-----------0h2--------------------0h2--------------|
A|-3---------------------3---------------------------|
E|---------------------------------------------------|

     Am
E|---------------------------------------------------|
B|---------1--------1------------1----------1--------|
G|-------2--------2------------2----------2----------|
D|-----------0h2--------------------0h2--------------|
A|-0---------------------0---------------------------|
E|---------------------------------------------------|

E|---------------------------------------------------|
B|---------1--------1------------1----------1--------|
G|-------2--------2------------2----------2----------|
D|-----------0h2--------------------0h2--------------|
A|-0---------------------0---------------------------|
E|---------------------------------------------------|

     G
E|---------------------------------------------------|
B|---------3--------3------------3----------3--------|
G|-------0--------0------------0----------0----------|
D|---------------------------------------------------|
A|-----------0h2--------------------0h2--------------|
E|-3---------------------3---------------------------|

E|---------------------------------------------------|
B|---------3--------3------------3----------3--------|
G|-------0--------0------------0----------0----------|
D|---------------------------------------------------|
A|-----------0h2--------------------0h2--------------|
E|-3---------------------3---------------------------|

     F
E|---------------------------------------------------|
B|---------1----------1---------1----------1---------|
G|-------2-----0h2------------2-----0h2--------------|
D|---------------------------------------------------|
A|---------------------------------------------------|
E|-1---------------------1---------------------------|





                          "Ahora me escondo..."

E|-----------------------1~~~~~~~~~| 1~~~~~~~~~-------
B|--1----1----1----0h1---1~~~~~~~~~| 1~~~~~~~~~-------
G|--0----2----4----2-----2~~~~~~~~~| 2~~~~~~~~~-------
D|-----------------------3~~~~~~~~~| 3~~~~~~~~~-------
A|-----------------------3~~~~~~~~~| 3~~~~~~~~~-------
E|-----------------------1~~~~~~~~~| 1~~~~~~~~~-------

     Am
E|---------------------------------------------------|
B|---------1--------1------------1----------1--------|
G|-------2--------2------------2----------2----------|
D|-----------0h2--------------------0h2--------------|
A|-0---------------------0---------------------------|
E|---------------------------------------------------|

E|---------------------------------------------------|
B|---------1--------1------------1----------1--------|
G|-------2--------2------------2----------2----------|
D|-----------0h2--------------------0h2--------------|
A|-0---------------------0---------------------------|
E|---------------------------------------------------|

     F
E|---------------------------------------------------|
B|---------1----------1---------1----------1---------|
G|-------2-----0h2------------2-----0h2--------------|
D|---------------------------------------------------|
A|-3---------------------3---------------------------|
E|---------------------------------------------------|

E|---------------------------------------------------|
B|---------1----------1---------1----------1---------|
G|-------2-----0h2------------2-----0h2--------------|
D|---------------------------------------------------|
A|-3---------------------3---------------------------|
E|---------------------------------------------------|



                          "Ya hace algún tiempo..."

E|-----------------------1~~~~~~~~~| 1~~~~~~~~~-------
B|--1----1----1----0h1---1~~~~~~~~~| 1~~~~~~~~~-------
G|--0----2----4----2-----2~~~~~~~~~| 2~~~~~~~~~-------
D|-----------------------3~~~~~~~~~| 3~~~~~~~~~-------
A|-----------------------3~~~~~~~~~| 3~~~~~~~~~-------
E|-----------------------1~~~~~~~~~| 1~~~~~~~~~-------

     Am
E|---------------------------------------------------|
B|---------1--------1------------1----------1--------|
G|-------2--------2------------2----------2----------|
D|-----------0h2--------------------0h2--------------|
A|-0---------------------0---------------------------|
E|---------------------------------------------------|

E|---------------------------------------------------|
B|---------1--------1------------1----------1--------|
G|-------2--------2------------2----------2----------|
D|-----------0h2--------------------0h2--------------|
A|-0---------------------0---------------------------|
E|---------------------------------------------------|

     F
E|---------------------------------------------------|
B|---------1----------1---------1----------1---------|
G|-------2-----0h2------------2-----0h2--------------|
D|---------------------------------------------------|
A|-3---------------------3---------------------------|
E|---------------------------------------------------|

E|---------------------------------------------------|
B|---------1----------1---------1----------1---------|
G|-------2-----0h2------------2-----0h2--------------|
D|---------------------------------------------------|
A|-3---------------------3---------------------------|
E|---------------------------------------------------|

    G
E|---------3---------------------3-------------------|
B|------------------3-----------------------3--------|
G|-------0--------0------------0----------0----------|
D|---------------------------------------------------|
A|-----------0h2--------------------0h2--------------|
E|-3---------------------3---------------------------|

E|---------3---------------------3-------------------|
B|------------------3-----------------------3--------|
G|-------0--------0------------0----------0----------|
D|---------------------------------------------------|
A|-----------0h2--------------------0h2--------------|
E|-3---------------------3---------------------------|

     F
E|---------------------------------------------------|
B|---------1----------1---------1----------1---------|
G|-------2-----0h2------------2-----0h2--------------|
D|---------------------------------------------------|
A|-3---------------------3---------------------------|
E|---------------------------------------------------|

E|---------------------------------------------------|
B|---------1----------1---------1----------1---------|
G|-------2-----0h2------------2-----0h2--------------|
D|---------------------------------------------------|
A|-3---------------------3---------------------------|
E|---------------------------------------------------|

    G
E|---------3---------------------3-------------------|
B|------------------3-----------------------3--------|
G|-------0--------0------------0----------0----------|
D|---------------------------------------------------|
A|-----------0h2--------------------0h2--------------|
E|-3---------------------3---------------------------|

E|---------3---------------------3-------------------|
B|------------------3-----------------------3--------|
G|-------0--------0------------0----------0----------|
D|---------------------------------------------------|
A|-----------0h2--------------------0h2--------------|
E|-3---------------------3---------------------------|

     F
E|-------------------------------------------1~------|
B|---------1----------1---------1----------1-1~1---1-|
G|-------2-----0h2------------2-----0h2--------0h2-0-|
D|---------------------------------------------------|
A|-3---------------------3---------------------------|
E|---------------------------------------------------|

     C
E|---------------------------------------------------|
B|---------1--------1------------1----------1--------|
G|-------0--------0------------0----------0----------|
D|-----------0h2--------------------0h2--------------|
A|-3---------------------3---------------------------|
E|---------------------------------------------------|

E|---------------------------------------------------|
B|---------1--------1------------1----------1--------|
G|-------0--------0------------0----------0----------|
D|-----------0h2--------------------0h2--------------|
A|-3---------------------3---------------------------|
E|---------------------------------------------------|

E|---------------------------------------------------|
B|---------1--------1------------1----------1--------|
G|-------0--------0------------0----------0----------|
D|-----------0h2--------------------0h2--------------|
A|-3---------------------3---------------------------|
E|---------------------------------------------------|

E|---------------------------------------------------|
B|---------1--------1------------1----------1--------|
G|-------0--------0------------0----------0----------|
D|-----------0h2--------------------0h2--------------|
A|-3---------------------3---------------------------|
E|---------------------------------------------------|


 C
Como hojas que danzan al viento asi,

nos elevara el tiempo y nos hara rodar y rodar y rodar y rodar y rodar

 C
Como hojas que danzan al viento asi,

os recogerá el tiempo y os hara rodar y rodar y rodar y rodar y rodar

 C
Como hojas que danzan al viento asi,
                               F
os recogerá el tiempo y os hara rodar y rodar y rodar y rodar y rodar

 C
Como hojas que danzan al viento asi,
                               F
os recogerá el tiempo y os hara rodar y rodar y rodar y rodar y rodar

F
Nunca hay final no hay final,
C
no es verdad, es verdad

F
Nunca hay final no hay final,
C
no es verdad, es verdad
Composição de Love of Lesbian
4 exibições
    • ½ Tom
    • A
    • Bb
    • B
    • C
    • Db
    • D
    • Eb
    • E
    • F
    • F#
    • G
    • Ab
  • Adicionar à lista

    0 comentários

    Ver todos os comentários

    Conseguiu tocar?

    0 Tocaram 0 Ainda não

    Grave um vídeo tocando Un día en el parque e nos envie!

    00:00 / 00:00
    Outros vídeos desta música
    Repetir Qualidade Automático
    Outros vídeos desta música
    00:00 / 00:00
    Automático

    Cifra Club Pro

    Aproveite o Cifra Club com benefícios exclusivos e sem anúncios
    Cifra Club Pro
    Aproveite o Cifra Club com benefícios exclusivos e sem anúncios
    OK