Cifra Club

Daily Ritual

Lovely Hatred

Cifra: Principal (violão e guitarra)
tom: B
B5              G5   F#5
 I cannot sleep down this night
 I feel like it could carry me inside
 With those eyes bleeding bright
 And that cold voice deep right inside

 You cannot carry me to wherever you want
 My thirst is all based in liberty
 I gotta find a way somehow
 To stop all this ritual

 All my pain could all be solved like
 With a cup of whisky this night
 I don't know where to go with all this
 Bright colored light

 Nothing seem to matter anymore
 I can't be no more right away from you
 You just don't seem to realize
 What I really need is some of you

B5                G5         F#5    A5    E5
 I gotta find the answers of my questions
 I need to question the means to survive
 I've gotta know whats going on
 When I'm not on the control
 When I don't control myself

B5         G5         F#5
 And now I have to restart again
 Again and again this dolorous pain
 Nothing to win nothing to gain, I feel, I'm strained!
 I'm chained in what happen today
 The past doesn't seem to behave
 I've lost some day what gave me the hope
 Tomorrow I'll get it all again

Intro
E|--------------|--------------|
B|--------------|--------------|
G|---4----------|---4----------|
D|--4------2----|--4------2----|
A|-2------------|-2------------|
E|--------------|--------------|
   
Verso   
     B5  G5 F#5     B5  G5 F#5
E|--------------|--------------|
B|--7-7--7---7--|--7-7--7---7--|
G|-4-4--4-4-4---|-4-4--4-4-4---|
D|-----0--------|-----0--------|
A|--------------|--------------|
E|--------------|--------------|

Refrão
    B5      A5  B5      A5  B5      A5  B4      A5  C5
E|----------------------------------------------------------------|
B|----------------------------------------------------------------|
G|4-4-4-4-2-2-4-4-4-4-2-2-4-4-4-4-2-2-4-4-4-4-2-2-5-5-5-5-5-5-5-5-|
D|----------------------------------------------------------------|
A|----------------------------------------------------------------|
E|----------------------------------------------------------------|
    B5      A5  B5      A5  B5      A5  B4      A5  D5
E|----------------------------------------------------------------|
B|----------------------------------------------------------------|
G|4-4-4-4-2-2-4-4-4-4-2-2-4-4-4-4-2-2-4-4-4-4-2-2-7-7-7-7-7-7-7-7-|
D|----------------------------------------------------------------|
A|----------------------------------------------------------------|
E|----------------------------------------------------------------|

Solo   
        B5   G5 F#5   A5    E5   B5      G5 F#5   A5    E5
E|----------------------------|-----------------------------------|
B|----7--777--33--5-5-3-2-3--3/7-----777--55--3-5-3-2-3-----------|
G|----------------------------|-----------------------------------|
D|----------------------------|-----------------------------------|
A|----------------------------|-----------------------------------|
E|----------------------------|-----------------------------------|
                 B5   G5 F#5   A5    E5   B5    G5 F#5 A5    E5  B5
E|----------------------------|-----------------------------------|
B|----7--777--33--5-5-3-2-3--3/5--3--2--3---5-----3-5-7-----------|
G|----------------------------|-----------------------------------|
D|----------------------------|-----------------------------------|
A|----------------------------|-----------------------------------|
E|----------------------------|-----------------------------------|
        B5 G5 F#5 B5 G5 F#     B5 G5 F#                         B5    G# F#
E|----------------------------|----------------------------|
B|--------------3-5-7---------|-------777-33---------------|
G|----------------------------|--------------4-------------|
D|----------------------------|----------------------------|
A|----------------------------|----------------------------|
E|----------------------------|----------------------------|
00:00 / 00:00
Outros vídeos desta música
Repetir
Outros vídeos desta música
Composição de João Victhor Da Paz Campos
Colaboração e revisão:
  • João Campos
6 exibições
    • ½ Tom
    • A
    • Bb
    • B
    • C
    • Db
    • D
    • Eb
    • E
    • F
    • F#
    • G
    • Ab
  • Adicionar à lista

    0 comentários

    Ver todos os comentários

    Entre para oCifra Club PRO

    Tenha acesso a benefícios exclusivos no App e no Site

    • Chega de anúncios

    • Prioridade de compra em lançamentos

    • Mais recursos no app do Afinador

    • Atendimento Prioritário

    • Descontos nos produtos Cifra Club

    • Ajude a produzir mais conteúdo

    00:00 / 00:00

    Cifra Club Pro

    Aproveite o Cifra Club com benefícios exclusivos e sem anúncios
    Cifra Club Pro
    Aproveite o Cifra Club com benefícios exclusivos e sem anúncios
    OK