Absurdo

LS Jack

Composição de: Carlos Pontual / Fernando Velloz
tom: C
Intro:
E|----------------------|-----------------------||
B|----------------------|--------------------5--||
G|----------------------|--------------------5--|| (2x)
D|-------7----------5---|-------7---------5--5--||
A|----------5-5-7-5---7-|---------5-5-7-5-------||
E|--5-5-----------------|--5-5------------------||

Fica nesse Riff durante a estrofe:
E|----------------------|-----------------------||
B|----------------------|--------------------5--||
G|----------------------|--------------------5--||
D|-------7----------5---|-------7---------5--5--||
A|----------5-5-7-5---7-|---------5-5-7-5-------||
E|--5-5-----------------|--5-5------------------||

Am
Essa conversa boa coisa não vai dar
Pra ser sincero eu quero até que ela me esqueça
Não quero ver quando essa bomba estourar
Não vai dizer que eu que fiz sua cabeça

Am
Agora eu sei que todo mundo vai falar
Daqui pra frente a coisa vai ficar é feia
Eu fiz de tudo pra ninguém se machucar
E aí vem gente que é babaca e sacaneia

Refrão:
        Dm
É um absurdo Eu sempre soube o meu lugar
             Am
Olha sinto muito
          Dm
E além de tudo você vem aqui pra me julgar
             Am
É o fim do mundo

Am
Essa conversa boa coisa não vai dar
Pra ser sincero eu quero até que ela me esqueça
Não quero ver quando essa bomba estourar
Não vai dizer que eu que fiz sua cabeça

        Dm
É um absurdo Eu sempre soube o meu lugar
                Am
Olha sinto muito
          Dm
E além de tudo você vem aqui pra me julgar
                Am
É o fim do mundo

Am
Agora eu sei que todo mundo vai falar
Daqui pra frente a coisa vai ficar é feia
Eu fiz de tudo pra ninguém se machucar
E aí vem gente que é babaca e sacaneia

        Dm
É um absurdo Eu sempre soube o meu lugar
                Am
Olha sinto muito
          Dm
E além de tudo você vem aqui pra me julgar
                Am
É o fim do mundo
Página 1 / 1

Letras e título
Acordes e artista

resetar configurações
OK