Thunderclouds

LSD (Labrinth, Sia & Diplo)

Composição de: Diplo / Henry Allen / Labrinth / Philip Meckseper / SIA
tom: Ab
E|---------------------------------------|
B|---------------------------------------|
G|---------------------------------------| (2x)
D|--2------0----2-------2----------------|
A|-------2-----------2----2---3----2--3--|
E|-------------------------------3-------|

              Em
All I need is one
                C
One old man is enough
                  Em
Babe, you got it wrong
                            C         D
Please turn your fears into trust, to trust

E|------------------x-------------------|
B|----------12--12--x--12---------------|
G|---------12---12--x--12---------------| (2x)
D|--------12----12--x--12---------------|
A|-----10-----------x-------------------|
E|------------------x-------------------|

E|------------------x-------------------|
B|----------5--5----x--5----------------|
G|---------5---5----x--5----------------| (2x)
D|--------5----5----x--5----------------|
A|-----3------------x-------------------|
E|------------------x-------------------|

            G
Where'd the love go
                     C
When all is said and done
(Hey now I got your hands in the air
I'mma go through your stuff)
            G
Where'd the love go
                        C
You put the running into run
(You asking me to stay
D
But I never met a girl I could trust)

       Em           D
You're sayin' those words
         G       C
Like you hate me now
Em           D
Our house is burning
            G         C
When you're raised in hell
Em          D          G          C
Here in the ashes your soul cries out
    Em         D             G        C
But don't be afraid of these thunderclouds

             Em        D
These thunderclouds oh no
             G         C
These thunderclouds oh no no

              Em
All I need is love
                C
All I need is a word
              Em
All I need is us
                      C         D
You turned nouns into verbs, to verbs

            G
Where'd the love go
                     C
When all is said and done
(Hey now put your hands in the air
I'mma go through your stuff)
            G
Where'd the love go
                         C
You put the running into run
(You're asking me to stay)
      D
But I never met a man I could trust)

       Em           D
You're sayin' those words
         G       C
Like you hate me now
Em           D
Our house is burning
            G       C
When you're raising hell
Em          D          G          C
Here in the ashes your soul cries out
    Em       D               G      C
But don't be afraid of these thunderclouds

             Em        D
These thunderclouds oh no
             G         C
These thunderclouds oh no no

             Em        D
These thunderclouds oh no
             G         C
These thunderclouds oh no no

             Em       D
These thunderclouds oh no
             G        C
These thunderclouds oh no no
Página 1 / 1

Letras e título
Acordes e artista

resetar configurações
OK