Enviar cifraEntrar

As Lembranças Vão Na Mala

Luan Santana

Tab de bateria: Principal
exibições 16.797
                     +                  +
PC -0------------------0-------------------0----------------------0
HH ---X--X--X--X--X--X---X--X--X--X--X--X--X--X--X--X--X--X--X--X--
CX ------0-----------0------0-----------0--------0-----------0----- 
BB -0----------0-------0----------0--------0-----------0----------0

PC ----------0
HH --X--X--X--
CX -----0-----
BB ----------0

                                              +
PC --0-------------------------------------------0-----------
HH ----X--X--X--X--X--X--X--X--X--X--X--X--X--X----X--X--X--X
CX -------0-----------0-----------0-----------0-------0------
BB --0----------0-----------0-----------0--------0----------0

PC ----------------------------------------------0----------0
HH --X--X--X--X--X--X--X--X--X--X--X--X--X--X--X---X--X--X---
CX -----0-----------0-----------0-----------0---------0-----0
BB -----------0-----------0-----------0----------0-----------

PC --------0-------------------------------------------0
HH -----------X--X--X--X--X--X--X--X--X--X--X--X--X--X--
CX -----00----0-----0-----0-----0-----0-----0-----0----0
T1 -0-----0---------------------------------------------
T2 --00-------------------------------------------------
SD ----0------------------------------------------------
BB --------0---0-------0---0-------0---0-------0---0--0-
                                                
PC 0-------------------------------------------00-----------
HH --X--X--X--X--X--X--X--X--X--X--X--X--X--X-----X--X--X--X
CX --0-----0-----0-----0-----0-----0-----0-----0--0-----0---
T1 ---------------------------------------------------------
T2 ---------------------------------------------------------
SD ---------------------------------------------------------
BB ---0-------0---0-------0---0-------0---0---0----0-------0

PC ------------------------------------------------------------
HH --X--X--X--X--X--X--X--X--X--X--X--X--X--X--X--X--X--X--X--X
CX --0-----0-----0-----0-----0-----0-----0-----0-----0-----0---
T1 ------------------------------------------------------------
T2 ------------------------------------------------------------
SD ------------------------------------------------------------
BB ---0-------0---0-------0---0-------0---0-------0---0-------0
                                        +
PC --------0-----------0--------------------
HH --X-X-X---------------XX-XX-XX-XX-XX-X---
CX --0-----0---000-------0--0--0--0--0--0-00
T1 ----------0---000------------------------
T2 -----------0-----000---------------------
SD ---------------------------------------00
BB ---00---------------00-00-00-00-00-00----
                      + 
PC 0--------------------0--------------0----------------------------
HH -X--X--X--X--X--X--X--X--X--X--X--X--X--X--X--X--X--X--X--X--X--X
CX ----0-----------0--------0--------0-----0-----------0-----------0
T1 ------------------------------0----0-----------------------------
T2 --------------------------------00-------------------------------
SD -----------------------------------------------------------------
BB 0------0--0----------0--------------0----------0----------0------
                 +
PC -----------------------------------------------------------
HH --X--X--X--X--XX--X--X--X--X--X--X--X--X--X--X--X--X--X--X-
CX -----------0------0-----------0-----------0-----------0----
T1 -----------------------------------------------------------
T2 -----------------------------------------------------------
SD -----------------------------------------------------------
BB -----0---------0--------0-----------0-----------0----------
             +
PC -----------0---------------00-------------------------------
HH -X--X--X--X-X--X--X----------X--X--X--X--X--X--X--X--X--X--X
CX -------0-------0-----------0-0-----0-----0-----0-----0-----0
T1 --------------------00----0---------------------------------
T2 ----------------------00------------------------------------
SD ------------------------00----------------------------------
BB -0---------0------------------0-------0---0-------0---0-----
                                              +
PC --------00---------------------------------------00-------
HH --X--X----X--X--X--X--X--X--X--X--X--X--X--X--X----X--X--X
CX -----0--0-0-----0-----0-----0-----0-----0-----0--0-0-----0
T1 ------------------------------------------------0---------
T2 ----------------------------------------------------------
SD ----------------------------------------------------------
BB --0---00---0-------0---0-------0---0--------00-0----0-----

PC --------------------------------00--------------------------
HH --X--X--X--X--X--X--X--X--X--X----X--X--X--X--X--X--X--X--X-
CX -----0-----0-----0-----0-----0--0-0-----0-----0-----0-----0-
T1 ------------------------------------------------------------
T2 ------------------------------------------------------------
SD ------------------------------------------------------------
BB --0---0-------0---0-------0---00---0-------0---0-------0---0
                              +
PC --0-------0--------------------
HH -X----------XX-XX-XX-XX-XX-X---
CX --0---------0--0--0--0--0--0-00
T1 ---0---------------------------
T2 ----0000-----------------------
SD --------00-------------------00
BB 00--------00-00-00-00-00-00----
        +                                        +
PC ------0----------------------------------------0-------
HH -----X-X--X--X--X--X--X--X--X--X--X--X--X--X--X-X--X--X
CX 000000-0-----0-----0-----0-----0-----0-----0--0-0-----0
T1 -------------------------------------------------------
T2 -------------------------------------------------------
SD 00000--------------------------------------------------
BB ------0-0-------0---0-------0---0-------0---00-0-0-----

PC ---------------------0-----------0-------------------
HH --X--X--X--X--X--X--X-------------X--X--X--X--X--X--X
CX -----0-----0-----0---0-000-000----0-----0-----0-----0
T1 ----------------------0-------00---------------------
T2 -----------------------------------------------------
SD -----------------------------------------------------
BB --0---0-------0---000--------------0-------0---0-----

PC ---------------------00-------------------
HH --X--X--X--X--X--X--X--X--X--X--X--X--X--X
CX -----0-----0-----0---0-0-----0-----0-----0
T1 ------------------------------------------
T2 ------------------------------------------
SD ------------------------------------------
BB --0---0-------0---0-0---0-------0---0-----
                                     +
PC ----------0-------0-------------------
HH --X--X-------------XX-XX-XX-XX-XX-X---
CX -----0----0-000-00-0--0--0--0--0--0-00
T1 -----------0---0----------------------
T2 -----------0--------------------------
SD ----------------00------------------00
BB --0---0-00--------0-00-00-00-00-00-0--

PC --0000--------
  • 1
  • 2
  • 3
  • 4
  • 5
  • 6
  • 7
  • 8
  • 9
  • 10
  • 11
  • 12
    Composição: Luan SantanaColaboração e revisão:
    • dandanrua2

    0 comentários

      mostrar mais comentários

      Conseguiu tocar?

      3tocaram0ainda não

      Grave um vídeo tocando As Lembranças Vão Na Mala e mande pra gente!

      00:00 / 00:00
      outros vídeos desta música
      repetirqualidadeautomática
      • automática
      Outro vídeos desta música
        00:00 / 00:00
        automática
        • automática
        1 versão de Tab de bateriaexibiçõescontribuições
        2 versões de Guitar Proformatodownloadscontribuição
        1 versão de Partiturasformatodownloadscontribuição
        fecharplay/pause subir/descer velocidade
        fechar
        OK
        Feedback