Enviar cifraEntrar

Certos Detalhes

Luan Santana

Cifra: Principal
exibições 122.728
Tom: F
Intro:

E|-6---6---10p6---6h8-|-6----6-----------|-6----6---10h6---6h8-|
B|--8-8-8-8-----------|---8-8-6----------|--8--8-8-8-----------|
G|---7---7------7-----|----7---8-7-7/8-5-|---7---7------7------|
D|--------------------|------------------|---------------------|
A|--------------------|------------------|---------------------|
E|--------------------|------------------|---------------------|


E|-------------------8b10-8----------------------------------|
B|---------- 6---6-8--------8--------------------------------|
G|-7p5-5-7/8---7---------------------------------------------|
D|----8------------------------------------------------------|
A|-----------------------------------------------------------|
E|-----------------------------------------------------------|


Intro: Gm  D#  Bb  F

Gm
Esqueça o mundo
D#
apague a luz escute só a minha voz
     Gm
tem certos detalhes
     D#
que insistem em te fazer desistir de nós

Gm
Razão te implora
  D#
e pede pra você se afastar de mim
        Gm
mas tem certos detalhes
    D#                         D#    F
que fazem um coração falar mais alto sim

D#                                                   Bb
Eu te conheço a pouco tempo mais pro sentimento   o  tempo.
                   F
não passa de uma palavra
D#                                                 Bb
a luz do seu olhar me fez sonhar e se me acompanhar
         F
criemos asas

Refrão:
  Gm                D#
É complicado pra você... viver a minha vida
Bb                          F
mais se ta disposta eu vou... buscar outra saída
  Gm                   D#
Eu já tentei deixar rolar... dizer que tanto faz
 Bb                        F
mais certos detalhes fazem... eu te amar...

 Gm                D#
É complicado pra você... viver a minha vida
Bb                          F
mais se ta disposta eu vou... buscar outra saída
   Gm                   D#
Eu já tentei deixar rolar... dizer que tanto faz
 Bb                        F                      Gm
mais certos detalhes fazem... eu te amar de mais

 Solo: Gm  D#  Bb  F  Gm  D#  Bb  Am  F  C  G  Am  F  C  G


E|-6---6---10p6---6h8-|-6----6----6/-----|-12-0-8-12-0-8-12-0-8---------------------------|
B|--8-8-8-8-----------|---8-8-6----------|----------------------12-0-10-0-8-0-------------|
G|---7---7------7-----|----7---8---------|------------------------------------10-0-9-0-7--|
D|--------------------|------------------|------------------------------------------------|
A|--------------------|------------------|------------------------------------------------|
E|--------------------|------------------|------------------------------------------------|


E|--------------------------10/12\10--8-----------------|
B|---------- ---8---8-10--8-----------------------------|
G|-9p7---7-9/10---9---------------------(5)harmonic-----|
D|----10------------------------------------------------|
A|------------------------------------------------------|
E|------------------------------------------------------|


Am
Razão te implora
  F
e pede pra você se afastar de mim
        Am
mas tem certos detalhes
    F                           F    G
que fazem um coração falar mais alto sim

   F                                                 C
Eu te conheço a pouco tem mais pro sentimento o tempo
                    G
não passa de uma palavra
  F                                              C
a luz do seu olhar me fez sonhar e se me acompanhar
        G
criemos azas

Refrão:
   Am                F
É complicado pra você... viver a minha vida
C                          G
mais se esta disposta eu vou... buscar outra saída
    Am                  F
Eu já tentei deixar rolar... dizer que tanto faz
 C                       G
mais certos detalhes fazem...

 Gm                D#
É complicado pra você... viver a minha vida
Bb                          F
mais se ta disposta eu vou... buscar outra saída
   Gm                   D#
Eu já tentei deixar rolar... dizer que tanto faz
 Bb                        F                      Gm D#
mais certos detalhes fazem... eu te amar de mais
              Bb             F                     Gm
Sao certos detalhes que fazem... eu te amar de mais...
         D#           Bb     F  Gm
Oh oh oh ho certos detalhes...


E|-------6-5---3--|
B|-3-6-3-----6----|
G|----------------|
D|----------------|
A|----------------|
E|----------------|
  • 1
  • 2
  • 3
  • 4
  • 5
  • 6
  • 7
  • 8
  • 9
  • 10
  • 11
  • 12
    Acordes para:
      Composição: Luan SantanaColaboração e revisão:

      0 comentários

        mostrar mais comentários

        Conseguiu tocar?

        13tocaram0ainda não

        Grave um vídeo tocando Certos Detalhes e mande pra gente!

        00:00 / 00:00
        outros vídeos desta música
        repetirqualidadeautomática
        • automática
        Outro vídeos desta música
          00:00 / 00:00
          automática
          • automática
          Acordes para:violão e guitarra
          dificuldadeexibiçõescontribuições
          fecharplay/pause subir/descer velocidade
            acordes
            fechar
            OK
            Feedback