Enviar cifraEntrar

Vou Voar

Luan Santana

Cifra: Principal
exibições 279.125
Tom: A (com acordes na forma de G) Capotraste na 2ª casa

E|--7------5------7-----7-----7--7---7------5------7-----7-----7--|
B|--8-8----8-8----8-8---8-8---8--8---8-8----8-8----8-8---8-8---8--|
G|--0---7--7---7--0---0-----0--------0---7--7---7------0-----0----|
D|----------------------------------------------------------------|
A|----------------------------------------------------------------|
E|----------------------------------------------------------------|


(intro) G  D  C  G  D  C

      G         D
Vou voar  quem quer amar
  C                    G
Sonhar alto voa sem parar
        D           C
Eu não vou ficar parado vendo
             G
Você se afastar
        D
A Melhor é você
       C
Meu destino é você

Fui feito pra você
(solo 2x) G  D  C  G  D  C


E|--5/7--5--5/7--4--4/5--4------------|
B|--5/7--5--5/7--5--5----5--7-5-5-3-3-|
G|------------------------------------|
D|------------------------------------|
A|------------------------------------|
E|------------------------------------|


E|--5/7--5--5/7--4--4/5--4----------5-|
B|--5/7--5--5/7--5--5----5--7-5-5-3---|
G|------------------------------------|
D|------------------------------------|
A|------------------------------------|
E|------------------------------------|


E|-------------------------------------|
B|-------------------------------------|
G|-----------------------------------2-|
D|--2h4-4-4-2h4-4-4-2h4-4-4-2h4-4-4--2-|
A|-------------------------------------|
E|-------------------------------------|


G      D           Em
Eu sonhei subir bem alto
      C           G
E um dia te alcançar
          D         Em
Minha estrela preferida
      C            G
Seu brilho está no ar
     D        Em
Magnífica presença
      C          G
Engrandeçe o meu ser
      D              Em
O seu corpo tem a essência
       C
Que explica o prazer

Em        D         C
Um cometa acertou em cheio
         Em
O meu coração
     D             C
E estremesseu meu mundo
                 ( G )
Toda a constelação

(refrão)
     G     D
Vou voar  quem quer amar
   C                   G
Sonhar alto voa sem parar
          D            C
Eu não vou ficar parado vendo
              G
Você se afastar
    D
A Melhor é você
      C
Meu destino é você
                 G
Fui feito pra você
( G  D  C  G  D  C ) (2x)


E|--5/7--5--5/7--4--4/5--4------------|
B|--5/7--5--5/7--5--5----5--7-5-5-3-3-|
G|------------------------------------|
D|------------------------------------|
A|------------------------------------|
E|------------------------------------|


E|--5/7--5--5/7--4--4/5--4----------5-|
B|--5/7--5--5/7--5--5----5--7-5-5-3---|
G|------------------------------------|
D|------------------------------------|
A|------------------------------------|
E|------------------------------------|


E|--------------|
B|--------------|
G|------2-------|
D|--2h4--2/4--2-|
A|--------------|
E|--------------|


Em          D         C
Um cometa acertou em cheio
O meu coração
Em   D             C
E estremesseu meu mundo
                 ( G )
Toda a constelação

(refrão)
     G         D
Vou voar  quem quer amar
  C                    G
Sonhar alto voa sem parar
        D           C
Eu não vou ficar parado vendo
             G
Você se afastar
        D
A Melhor é você
       C
Meu destino é você

Fui feito pra você
(  G  D  C  G  D  C ) (2x)


E|--5/7--5--5/7--4--4/5--4-----------------5---5---5------------|
B|--5/7--5--5/7--5--5----5--7-5-5-3-3--------3---3---3--2-3-3/5-|
G|--------------------------------------------------------------|
D|--------------------------------------------------------------|
A|--------------------------------------------------------------|
E|--------------------------------------------------------------|


Em  C              G               D
Alimenta a alma ao tentar buscar você
Em C               G
Tua voz me acalma
D
Me ensina ter você
C
Me ensina ter você

(refrão 2x)
(  G  D  C  G  D  C ) (2x)


E|--5/7--5--5/7--4--4/5--4------------|
B|--5/7--5--5/7--5--5----5--7-5-5-3-3-|
G|------------------------------------|
D|------------------------------------|
A|------------------------------------|
E|------------------------------------|


E|--5/7--5--5/7--4--4/5--4----------5-|
B|--5/7--5--5/7--5--5----5--7-5-5-3---|
G|------------------------------------|
D|------------------------------------|
A|------------------------------------|
E|------------------------------------|

  • 1
  • 2
  • 3
  • 4
  • 5
  • 6
  • 7
  • 8
  • 9
  • 10
  • 11
  • 12
    Acordes para:
      Composição: SorocabaColaboração e revisão:

      0 comentários

        mostrar mais comentários

        Conseguiu tocar?

        17tocaram0ainda não

        Grave um vídeo tocando Vou Voar e mande pra gente!

        00:00 / 00:00
        outros vídeos desta música
        repetirqualidadeautomática
        • automática
        Outro vídeos desta música
          00:00 / 00:00
          automática
          • automática
          Acordes para:violão e guitarra
          dificuldadeexibiçõescontribuições
          fecharplay/pause subir/descer velocidade
            acordes
            fechar
            OK
            Feedback