Cifra Club

Não Era Pra Ser

Luan Santana

Cifra: Versão 3 (violão e guitarra)
tom: A
Intro 5x: A  Bm
E|-6-5-6-5-6-5-6-6/7--7-6-7-6-7-6-7-7/8---|
B|----------------------------------------|
G|----------------------------------------|
D|----------------------------------------|
A|----------------------------------------|
E|----------------------------------------|

    A                     E
Fiquei a dois dedos da sua boca e não beijei
    F#m                   D
Perdi o "time" pra me declarar e me calei
    A                        E                D
Milhões de desencontros culminaram nessa decisão

    A                      E
Perdi meu celular e o seu número foi junto
     F#m                      D
Nosso primeiro encontro tava meio sem assunto
    A                     E                  D           E
Talvez por timidez eu me fechei e esperei você me procurar

Refrão:
              A
Não era pra ser, não, não, não     E|-7-7-7-7-7-7-7-7-7-7-7-7-7-7-7-7-7-7-7-7--
           E
Não ia rolar                       E|-9-9-9-9-9-9-9-9-9-9-9-9-9-9-9-9-9-9-9-9--
      D
Já tivemos tantas chances
          E
Mais ninguém quis se entregar
E|-7-7-7-7-7-7-7-7-7-7-7-7-7-7-7-7-7-7-7-7--|
B|------------------------------------------|
G|------------------------------------------|
D|------------------------------------------|
A|------------------------------------------|
E|------------------------------------------|

E|-9-9-9-9-9-9-9-9-9-9-9-9-9-9-9-9-9-9-9-9--|
B|------------------------------------------|
G|------------------------------------------|
D|------------------------------------------|
A|------------------------------------------|
E|------------------------------------------|

E|-5-5-5-5-5-5-5-5-5-5-5-5-5-5-5-5-5-5-5-5--|
B|------------------------------------------|
G|------------------------------------------|
D|------------------------------------------|
A|------------------------------------------|
E|------------------------------------------|

E|-----7/9-7p5------------------------------|
B|-7p5--------------------------------------|
G|------------------------------------------|
D|------------------------------------------|
A|------------------------------------------|
E|------------------------------------------|

(2x o solo)
              A
Não era pra ser, não, não, não   E|-7-7-7-7-7-7-7-7-7-7-7-7-7-7-7-7-7-7-7-7--
             E
Não ia dar certo                 E|-9-9-9-9-9-9-9-9-9-9-9-9-9-9-9-9-9-9-9-9--
      D
A distância vai dizer
        Bm           Bm   C#m  D9     A
Se é melhor eu ficar lo - on - ge ou perto

(Refrão 2x)
Composição de Sorocaba
Colaboração e revisão:
  • Edilho Souza
864 exibições
    • ½ Tom
    • A
    • Bb
    • B
    • C
    • Db
    • D
    • Eb
    • E
    • F
    • F#
    • G
    • Ab
  • Adicionar à lista

    0 comentários

    Ver todos os comentários

    Conseguiu tocar?

    0 Tocaram 0 Ainda não

    Grave um vídeo tocando Não Era Pra Ser e nos envie!

    00:00 / 00:00
    Outros vídeos desta música
    Repetir Qualidade Automático
    Outros vídeos desta música
    00:00 / 00:00
    Automático

    Cifra Club Pro

    Aproveite o Cifra Club com benefícios exclusivos e sem anúncios
    Cifra Club Pro
    Aproveite o Cifra Club com benefícios exclusivos e sem anúncios
    OK