Notificações Amigos pendentes

      Luan Santana

      Palácios e Castelos

      308.805 exibições
      Tom: B
      
       Intro: E  F#  B  E  F#  B  E  B  F#
      E|---------------4~-4~-6-7-9--7-6-7-11-11~-
      B|-4-4-5-7-5-4-5-5~-5~-8-9-11-9-7-9-12-12~-
      G|-6-6-7-9-7-5-7---------------------------
      D|-----------------------------------------
      A|-----------------------------------------
      E|-----------------------------------------
      
      
      E|------------------------------------------
      B|-4-4-5-7-5-4-5~-5-5-7-9--7-5-7~-7-7-9--11-
      G|-5-5-7-9-7-5-7~-7-7-9-11-9-7-9~-7-7-11-13-
      D|------------------------------------------
      A|------------------------------------------
      E|------------------------------------------
      
      
      E|---------------------------------------
      B|-12-14-12-16-12-12~--------------------
      G|-13-15-13-16-12-12~--------------------
      D|---------------------------------------
      A|---------------------------------------
      E|---------------------------------------
      
      
      
      Primeira parte:
       B                 E
      Te pedi, que me levasse a sério
       B                 E
      Construí, palácios e castelos
      B                   E           C#m   F#
      Esperei, por muito tempo antes de te ver
      
       B                 E
      Li, re-li, seu manual inteiro
       B                  E
      Descobri, todos os seus segredos
       B                 E         C#m  F#
      Desenhei, o mapa que me leva a você
      
      Pré-refrão:
         C#m
      A gente se conheceu na escola
            G#m            F#
      Eu pegando onda e jogando bola
             C#m
      Você era modelo e adorava dançar
          E                       B
      Praia, cinema, festinhas no ar
      
      Refrão:
      Se tá com dor eu sou doutor
       E
      Tá com frio eu sou calor
                               B
      Mando flores, dou beijinho em sua mão
           G#m
      Se quer brincar de se esconder
       C#m
      No escurinho eu e você
         F#                 B
      É só pedir com o coração
      
          B7
      Se tá com dor eu sou doutor
       E
      Tá com frio eu sou calor
                               B
      Mando flores, dou beijinho em sua mão
             G#m
      Se quer brincar de se esconder
       C#m
      No escurinho eu e você
         F#                 B
      É só pedir com o coração
      
      E|--------------
      B|-6-4-2-2-4-2~-
      G|--------------
      D|--------------
      A|--------------
      E|--------------
      
      
      
      (repete tudo)
      
      Refrão 2x:
      Se tá com dor eu sou doutor
       E
      Tá com frio eu sou calor
                               B
      Mando flores, dou beijinho em sua mão
           G#m
      Se quer brincar de se esconder
       C#m
      No escurinho eu e você
         F#                 B
      É só pedir com o coração
        Composição: Levi LimaColaboração e revisão:
        • Rick
        • thallissonpac.
        • fabimbisquila
        • Junior Senna
        • +7

        Comentários 43

        140 .
        • faahxxl faahxxl: Em 26/02/2013 13:15

          Cifra corretíssima. Pobres coitados mal sabem tocar e ficam botando defeito!

        • jana_som jana_som: Em 10/12/2012 15:13

          E|------------------------------------------------7-------
          B|--------2-4-2-----------4-4-5-7-5-4-5-9---------
          G|-----4---------4----------

        • vick102050 vick102050: Em 01/03/2012 18:59

          ta errada a nota dessa musica e facil mais ta errado essas notas

        • math_evangel math_evangel: Em 10/02/2012 13:53

          fácil

        • seinaozin seinaozin: Em 23/12/2011 22:50

          musica boa e facil

        • filipeeskilo filipeeskilo: Em 21/08/2011 19:58

          as notas estão fora de ordem!!!!!!!!!!!!!!!

        • fabiano_sci fabiano_sci: Em 19/08/2011 20:15

          Faz a vídeo aula completa aí. Vlw!

        • fabiano_sci fabiano_sci: Em 19/08/2011 20:15

          Muito bom.

        • 344932445ghiu 344932445ghiu: Em 18/08/2011 13:08

          gostei so que eu quero o luan santana que canta nota:1

        • lukenhas lukenhas: Em 13/08/2011 00:23

          Regravaçao da banda Via circular /watch?v=glchsHUdt0w

        140 cancelar

        conseguiu tocar?

        • •••

        covers

        Grave um vídeo tocando Palácios e Castelos e mande pra gente!

        Ex.: http://www.youtube.com/watch?v=0IvSvIwGdwk
        ver covers de outras músicas »
        0:00 / 0:00
        Esta versão de cifra não é usada na videoaula. Exiba a cifra correta.
        1 versão de partiturasformatodownloadscontribuição
        play/pausefechar subir/descer velocidade
        6ª corda E5ª corda A4ª corda D3ª corda G2ª corda B1ª corda E
          acordes
          publicidade
          fechar
          ok