Cifra Club

Pra Você Lembrar de Mim

Luan Santana

Cifra: Principal
exibições 354.938
Tom: C# (com acordes na forma de C) Capotraste na 1ª casa
Intro: C Am F G
E|-------------------------------------|
B|-5-5-5-3-3-3-------------------------|
G|-------------5-5-5--4-4-4--5-5--4-4--|
D|-------------------------------------|
A|-------------------------------------|
E|-------------------------------------|

Primeira parte:
E|-------------------------------------------------------|
B|-6-6-6--5-5-5--3-3-3--5-5-5--3-3--5-5--8-8-8-8-8-8-8-8-|
G|-------------------------------------------------------|
D|-------------------------------------------------------|
A|-------------------------------------------------------|
E|-------------------------------------------------------|
                 C
Não fique aí sofrendo
                 Am
Com o coração doendo
             D G                   C
Você se esqueceu que seu amor sou eu

Segunda parte:
                    C
Não quero te ver chorando
                 Am
Ai calada pelos cantos
            F  G                  C
Você se esqueceu que seu amor sou eu

Pré-refrão:
         F               G                    C
Nunca esqueça que estou aqui sempre a te esperar
        Am
Pra te amar
         F
Me enlouqueça com teus carinhos
           G        G
Pra gente sonhar

Refrão:
( G )               C
Mesmo quando for embora
                 Am
A saudade vai fazer você voltar
                      F
sei que o seu peito chora
           G
Querendo me amar
                     C
Mas eu sei que nessa hora
                    Am
As estrelas vão brilhar enfim
                   F               G
Pois deixei o meu nome escrito no céu
               C
Pra você lembrar de mim
( C Am F G )
E|-------------------------------------|
B|-5-5-5-3-3-3-------------------------|
G|-------------5-5-5--4-4-4--5-5--4-4--|
D|-------------------------------------|
A|-------------------------------------|
E|-------------------------------------|

Pré-refrão:
         F               G                    C
Nunca esqueça que estou aqui sempre a te esperar
        Am
Pra te amar
         F
Me enlouqueça com teus carinhos
           G        G
Pra gente sonhar

Refrão 2x:
( G )               C
Mesmo quando for embora
                 Am
A saudade vai fazer você voltar
                      F
sei que o seu peito chora
           G
Querendo me amar
                     C
Mas eu sei que nessa hora
                    Am
As estrelas vão brilhar enfim
                   F               G
Pois deixei o meu nome escrito no céu
               C        C Em Am
Pra você lembrar de mim
( Am )                F               G
   Pois deixei o meu nome escrito no céu
             C
Pra você lembrar de mim

Solo: C Am F G
E|--------------------------------------|
B|-5-5-5--3-3-3-------------------------|
G|--------------5-5-5--4-4-4--5-5--4-4--|
D|--------------------------------------|
A|--------------------------------------|
E|--------------------------------------|
Acordes para:

    0 comentários

      mostrar mais comentários

      Conseguiu tocar?

      35tocaram0ainda não

      Grave um vídeo tocando Pra Você Lembrar de Mim e mande pra gente!

      00:00 / 00:00
      outros vídeos desta música
      repetirqualidadeautomática
      Outro vídeos desta música
        00:00 / 00:00
        automática
        OK