Enviar cifraEntrar

Química do Amor

Luan Santana

Cifra: Principal
exibições 507.589
Tom: E
Intro: E  A5(9)


E|-4p0--2p0--4p0--5p0--4p0---4p0--2p0--4p0--5p0--4p0-|
B|---------------------------------------------------|
G|---------------------------------------------------|
D|---------------------------------------------------|
A|---------------------------------------------------|
E|---------------------------------------------------|


E|--------------------5--------17--------------------|
B|-5---2---------------------------------------------|
G|---4---4-1-----------------------------------------|
D|-----------4-2-2-2----2-2-2------------------------|
A|---------------------------------------------------|
E|---------------------------------------------------|


Primeira Parte:
    E
Queria ser um peixe e mergulhar no seu aquário
    B5(9)
Queria ser a data pra marcar seu calendário
F#m           Am
Eu e você, espera pra ver
    E
Que tal, a gente agora misturar a nossa cor
     B5(9)
Pra ver a combustão, a química do nosso amor
F#m              Am
Eu e você, quer pagar pra ver?

    B5(9)                              A5(9)
Me diga, que você vai entrar na minha vida
                            E
Que eu sou a sua musa preferida

Diga que sou seu bem me quer
    B5(9)
seu anjo sua fada,  o que você quiser
 B5(9)                                  A5(9)
Fala, no meu ouvido bem baixinho que me ama
                              E
E me leva de uma vez pra sua cama
                       B5(9)
Me dá uma noite de prazer
    A5(9)  B5(9)      E
Eu topo tudo com você

Refrão:
 E                                         A5(9)  B5(9)
Vão bora, não demora, eu quero ser o seu amor ôô ôô
                      E      C#m
Tô louco pra me entregar aa aa
   B5(9)             A5(9)         E
E aí, paixão, o meu coração, tá xonado de tanto desejo
                     A5(9)  B5(9)
Eu quero ser o seu amor ôô ôô
                      E      C#m
Tô louca pra me entregar aa aa
       A5(9)                      Am
Tudo que eu quero agora, é tá contigo e te amar!
Solo: E  B5(9)  A5(9)  Am


E|---------------------------------------------------|
B|-----------------------------5-5p4-----------------|
G|-----4-4h6-4-------------4-6-------6-4---6p4-------|
D|-4h6---------6-4-4h6\-6----------------6-----------|
A|---------------------------------------------------|
E|---------------------------------------------------|


E|---------------------------------5---7-5-----------|
B|---------5-5/7-5-5---5/7\5-3/5-----5-----5---------|
G|-----4-6-----------6-----------6-----------4/5-4-2-|
D|-2/4-----------------------------------------------|
A|---------------------------------------------------|
E|---------------------------------------------------|


(Primeira Parte)

    B5(9)                              A5(9)
Me diga, que você vai entrar na minha vida
                            E
Que eu sou a sua musa preferida

Diga que sou seu bem me quer
    B5(9)
seu anjo sua fada,  o que você quiser
 B5(9)                                  A5(9)
Fala, no meu ouvido bem baixinho que me ama
                              E
E me leva de uma vez pra sua cama
                       B5(9)
Me dá uma noite de prazer
    A5(9)  B5(9)      E
Eu topo tudo com você

Refrão:
 E                                         A5(9)  B5(9)
Vão bora, não demora, eu quero ser o seu amor ôô ôô
                      E      C#m
Tô louco pra me entregar aa aa
   B5(9)             A5(9)         E
E aí, paixão, o meu coração, tá xonado de tanto desejo
                     A5(9)  B5(9)
Eu quero ser o seu amor ôô ôô
                      E      C#m
Tô louca pra me entregar aa aa
       A5(9)                      Am
Tudo que eu quero agora, é tá contigo e te amar!

Depois do último refrão, tocar:

( E↓↓↓ A5(9): ↓ B5(9): ↓ E: ↓↓↓ )
  • 1
  • 2
  • 3
  • 4
  • 5
  • 6
  • 7
  • 8
  • 9
  • 10
  • 11
  • 12

    0 comentários

      mostrar mais comentários

      Conseguiu tocar?

      99tocaram0ainda não

      Grave um vídeo tocando Química do Amor e mande pra gente!

      00:00 / 00:00
      outros vídeos desta música
      repetirqualidadeautomática
      • automática
      Outro vídeos desta música
        Capítulos
        • Início
        • Tocando a música
        • Acordes da base do solo (Introdução)
        • Tocando Introdução
        • Ensinando ritmo padrão
        • Ensinando solo da intro (Parte 1)
        • Ensinando solo da intro (Parte 2)
        • Acordes da Primeira Parte
        • Tocando Primeira Parte
        • Ensinando ritmo Primeira parte (variação)
        • Acordes do Refrão
        • Tocando Refrão
        • Ensinando ritmo do Refrão (variação)
        • Acordes da base do Solo
        • Tocando Solo
        • Ensinando Solo (Parte 1)
        • Ensinando Solo (Parte 2)
        • Tocando trecho final
        • Ensinando ritmo final (variação)
        • Encerramento
        00:00 / 00:00
        automática
        • automática
        Acordes para:violão e guitarra
        dificuldadeexibiçõescontribuições
        fecharplay/pause subir/descer velocidade
          Acordes para:violão e guitarra
          acordes
          fechar
          OK