Cifra Club

Te Vivo

Luan Santana

Cifra: Principal
exibições 1.387.939
Tom: D
Intro 2x: D  F#m/C#  Bm

Dedilhado intro:
1ª parte:

   D               F#m/C#
E|---------2-----2----------2-----2--------|
B|-----3-------3--------2-------2----------|
G|---2---2---2--------2---2---2------------|
A|-0---------------------------------------|
D|------------------4----------------------|
E|-----------------------------------------|


2ª parte:

   Bm
E|---------2-----2----------2-----2--------|
B|-----3-------3--------3-------3----------|
G|---4---4---4--------4---4---4------------|
D|------------------4----------------------|
A|-2---------------------------------------|
E|-----------------------------------------|


Primeira parte:
D                  F#m/C#
  Quando me sinto só
                 Bm   G
Te faço mais presente
D                  F#m/C#
  Eu fecho os meus olhos
             Bm
E enxergo a gente

Dedilhado primeira parte:
1ª parte:

  D               F#m/C#
E|---------2-----2----------2-----2--------|
B|-----3-------3--------2-------2----------|
G|---2---2---2--------2---2---2------------|
D|-0---------------------------------------|
A|------------------4----------------------|
E|-----------------------------------------|


2ª parte:

   Bm               G
E|---------2-----2----------3-----3--------|
B|-----3-------3--------3-------3----------|
G|---4---4---4--------4---4---4------------|
D|-----------------------------------------|
A|-2---------------------------------------|
E|------------------3----------------------|


3ª parte:

   D                F#m/C#
E|---------2-----2----------2-----2--------|
B|-----3-------3--------2-------2----------|
G|---2---2---2--------2---2---2------------|
D|-0---------------------------------------|
A|------------------4----------------------|
E|-----------------------------------------|


4ª parte:

   Bm
E|---------2-----2----------2-----2--------|
B|-----3-------3--------3-------3----------|
G|---4---4---4--------4---4---4------------|
D|------------------4----------------------|
A|-2---------------------------------------|
E|-----------------------------------------|


Pré-refrão:

Em
   Em questão de segundos
               Bm
Voo pra outro mundo

Outra constelação
                  G
Não dá para explicar
                  Em
Ao ver você chegando
             A  A4
Qual a sensação

Dedilhado pré-refrão:
1ª parte:
   Em

E|---------0-----0----------0-----0--------|
B|-----0-------0--------0-------0----------|
G|---0---0---0--------0---0---0------------|
D|------------------2----------------------|
A|-----------------------------------------|
E|-0---------------------------------------|


2ª parte:


   Bm
E|-----------------------------------------|
B|---------3-----3----------3-----3--------|
G|-----4-------4--------4-------4----------|
D|---4---4---4--------4---4---4------------|
A|-2----------------2----------------------|
E|-----------------------------------------|


3ª parte:


   G               Em
E|--------------------------0-----0--------|
B|---------3-----3------0-------0----------|
G|-----4-------4------0---0---0------------|
D|---5---5---5-----------------------------|
A|-----------------------------------------|
E|-3----------------0----------------------|


4ª parte:


   A                A4
E|---------0-----0----------0-----0--------|
B|-----2-------2--------3-------3----------|
G|---2---2---2--------2---2---2------------|
D|-----------------------------------------|
A|-0----------------0----------------------|
E|-----------------------------------------|


Refrão:
D                                       A
  A gente não precisa tá colado pra tá junto
                        F#
Os nossos corpos se conversam por horas e horas
Bm
   Sem palavras tão dizendo a todo instante
G
Um pro outro o quanto se adoram

D
  Eu não preciso te olhar
                   A
Pra te ter em meu mundo
                          F#
Porque aonde quer que eu vá
              G5(9)
Você está em tudo
                      Em7  A4
Tudo, tudo que eu preciso  oh
    ( D F#m/C# Bm )(2x)
Te vivo

Dedilhado refrão:
1ª parte:

   D
E|---------2-----2----------2-----2--------|
B|-----3-------3--------3-------3----------|
G|---2---2---2--------2---2---2------------|
D|-0----------------0----------------------|
A|-----------------------------------------|
E|-----------------------------------------|


2ª parte:

   A                F#
E|---------0-----0----------2-----2--------|
B|-----2-------2--------2-------2----------|
G|---2---2---2--------3---3---3------------|
D|-----------------------------------------|
A|-0---------------------------------------|
E|------------------2----------------------|


3ª parte:

   Bm
E|---------2-----2----------2-----2--------|
B|-----3-------3--------3-------3----------|
G|---4---4---4--------4---4---4------------|
D|------------------4----------------------|
A|-2---------------------------------------|
E|-----------------------------------------|


4ª parte:

   G
E|---------3-----3----------3-----3--------|
B|-----3-------3--------3-------3----------|
G|---4---4---4--------4---4---4------------|
D|-----------------------------------------|
A|------------------5----------------------|
E|-3---------------------------------------|


1ª parte:

   D
E|---------2-----2----------2-----2--------|
B|-----3-------3--------3-------3----------|
G|---2---2---2--------2---2---2------------|
D|-0----------------0----------------------|
A|-----------------------------------------|
E|-----------------------------------------|


2ª parte:

   A                F#
E|---------0-----0----------2-----2--------|
B|-----2-------2--------2-------2----------|
G|---2---2---2--------3---3---3------------|
D|-----------------------------------------|
A|-0---------------------------------------|
E|------------------2----------------------|


5ª parte:

   G5(9)
E|-----------------------------------------|
B|---------3-----3----------3-----3--------|
G|-----2-------2--------2-------2----------|
D|---0---0---0--------0---0---0------------|
A|-----------------------------------------|
E|-3----------------3----------------------|


6ª parte:

   Em7             A4
E|------------------0----------------------|
B|---------3-----3--3----------------------|
G|-----0-------0----2----------------------|
D|---0---0---0-----------------------------|
A|------------------0----------------------|
E|-0---------------------------------------|


Primeira parte:
D                  F#m/C#
  Quando me sinto só
                 Bm   G
Te faço mais presente
D                  F#m/C#
  Eu fecho os meus olhos
             Bm
E enxergo a gente

Pré-refrão:
Em
   Em questão de segundos
               Bm
Voo pra outro mundo

Outra constelação
                  G
Não dá para explicar
                  Em
Ao ver você chegando
             A  A4
Qual a sensação

Refrão final:
D                                       A
  A gente não precisa tá colado pra tá junto
                        F#
Os nossos corpos se conversam por horas e horas
Bm
   Sem palavras tão dizendo a todo instante
G
Um pro outro o quanto se adoram

D
  Eu não preciso te olhar
                   A
Pra te ter em meu mundo
                          F#
Porque aonde quer que eu vá
              G5(9)
Você está em tudo
                      Em7  A4
Tudo, tudo que eu preciso  oh

D                                       A
  A gente não precisa tá colado pra tá junto
                        F#
Os nossos corpos se conversam por horas e horas
Bm
   Sem palavras tão dizendo a todo instante
G
Um pro outro o quanto se adoram

D
  Eu não preciso te olhar
                   A
Pra te ter em meu mundo
                          F#
Porque aonde quer que eu vá
              G5(9)
Você está em tudo
                      Em7   A4
Tudo, tudo que eu preciso  oh
    D   F#m/C#  D
Te vivo
Acordes para:
    Colaboração e revisão:

    0 comentários

      mostrar mais comentários

      Conseguiu tocar?

      179tocaram7ainda não

      Grave um vídeo tocando Te Vivo e mande pra gente!

      00:00 / 00:00
      outros vídeos desta música
      repetirqualidadeautomática
      Outro vídeos desta música
        00:00 / 00:00
        automática
        Capítulos
        • Início
        • Tocando a música
        • Acordes da Introdução
        • Tocando Introdução
        • Ensinando Introdução
        • Acordes da Primeira Parte
        • Tocando Primeira Parte
        • Ensinando Primeira Parte
        • Acordes do Pré-Refrão
        • Tocando Pré-Refrão
        • Ensinando Pré-Refrão
        • Acordes do Refrão
        • Tocando Refrão
        • Ensinando Refrão
        • Tocando Refrão Final
        • Encerramento
        OK