Notificações Amigos pendentes

      Luan Santana

      Você de Mim Não Sai

      400.924 exibições
      Tom: D
      Intro:
      
         Bm
      E|--------------6/7~-----------------------|
      B|-2--6/7--7-7--6/7~--10-10-10-8-7b¼r7-----|
      G|-4--6/7-7-7--------------------------9---|
      D|-4---------------------------------------|
      A|-2---------------------------------------|
      E|-----------------------------------------|
      
      
      E|---------------------------------------------------|
      B|-7b¼r7---------------------------------------------|
      G|-------9-7---7h9~----------------------------------|
      D|-----------7---------------------------------------|
      A|---------------------------------------------------|
      E|---------------------------------------------------|
      
      
      E|------------6/7-7~---------------------------------|
      B|-6/7--7-7---6/7-7~--10-10-10-8-7~---7~-------------|
      G|-6/7--7-7-------------------------9----9-7---7h9~--|
      D|-------------------------------------------7-------|
      A|---------------------------------------------------|
      E|---------------------------------------------------|
      
      
      Parte 1:
      
      E|-----------------------------------------|
      B|-----5-----5------------5-----5----------|
      G|---7-----7-----7------7-----7-----7------|
      D|-9-----9-----9------9-----9-----9--------|
      A|-----------------------------------------|
      E|-----------------------------------------|
      
        P.M.. . . . . .    . . . . . . . .
      
      
      E|-----------------------------------------|
      B|-----5-----5------------5-----5----------|
      G|---7-----7-----7------6-----6-----6------|
      D|-7-----7-----7------7-----7-----7--------|
      A|-----------------------------------------|
      E|-----------------------------------------|
      
        P.M.. . . . . .    . . . . . . . .
      
      
      E|-----------------------------------------|
      B|-----5-----8h10p8-7----------------------|
      G|---7-----------------9~------------------|
      D|-9-----9---------------------------------|
      A|-----------------------------------------|
      E|-----------------------------------------|
      
        P.M.. .
      
      Bm G D5(9) ↓ x ↑↑ x ↓↑
      A5(9) ↓ x ↑↑ x ↓
      
      Refrão:
      
         Bm                 G
      E|--------0-----------3--x-3--3--x-3-3-----|
      B|------3---3---3-----3--x-3--3--x-3-3-----|
      G|-4--4-------4-------0--x-0--0--x-0-0-----|
      D|-4------------------0--x-0--0--x-0-0-----|
      A|-2------------------2--x-2--2--x-2-2-----|
      E|--------------------3--x-3--3--x-3-3-----|
      
      
         D5(9)              A5(9)
      E|--------0-----------0--x-0--0--x-0-0-----|
      B|-3----3---3---3-----0--x-0--0--x-0-0-----|
      G|-2--2-------2-------2--x-2--2--x-2-2-----|
      D|-0------------------2--x-2--2--x-2-2-----|
      A|--------------------0--x-0--0--x-0-0-----|
      E|-----------------------------------------|
      
      
         Bm                 G
      E|--------0-----------3--x-3--3--x-3-3-----|
      B|------3---3---3-----3--x-3--3--x-3-3-----|
      G|-4--4-------4-------0--x-0--0--x-0-0-----|
      D|-4------------------0--x-0--0--x-0-0-----|
      A|-2------------------2--x-2--2--x-2-2-----|
      E|--------------------3--x-3--3--x-3-3-----|
      
      
      A5(9) ↓ x ↑↑ x ↓↑  (2x)
      A5(9) ↓ x ↑↑ x ↓
      
      Continuação da Música e Variações
      
      (Repetir Intro)
      
                                         G
      E|---------------------------------3-3----|
      B|-----5-----5------------5--------3-3----|
      G|---7-----7-----7------7-----7----0-0----|
      D|-9-----9-----9------9-----9------0-0----|
      A|---------------------------------2-2----|
      E|---------------------------------3-3----|
      
        P.M.. . . . . .    . . . . .
      
      D5(9)  A5(9)   ↓ x ↑↑ x ↓↑
      
      
         Bm                  A5(9)
      E|-2-x-2---------------0--0-0-0-0----------|
      B|-3-x-3-----8h10p8-7--0--0-0-0-0----------|
      G|-4-x-4---------------2--2-2-2-2----------|
      D|-4-x-4---------------2--2-2-2-2----------|
      A|-2-x-2---------------0--0-0-0-0----------|
      E|-----------------------------------------|
      
      
      Bm G D5(9) A5(9)
      
      Refrão Final:
      
      E|---------------------------------------------------|
      B|---------5------------------5----------------------|
      G|---7-------7----------7---------7------------------|
      D|-9-----9-----9------5-----5---5---5----------------|
      A|---------------------------------------------------|
      E|---------------------------------------------------|
      
        P.M.  . . . .      . .   . . . . .
      
      
      E|---------------------------------------------------|
      B|---3-----5---3----------0-----3---0----------------|
      G|-------2---2---2------2-----2---2---2--------------|
      D|-0------------------2------------------------------|
      A|---------------------------------------------------|
      E|---------------------------------------------------|
      
        P.M.  . . . . .    . . .   . . . . .
      
      
      E|---------------------------------------------------|
      B|---------5------------------5----------------------|
      G|---7-------7----------7---------7------------------|
      D|-9-----9-----9------5-----5---5---5----------------|
      A|---------------------------------------------------|
      E|---------------------------------------------------|
      
        P.M.  . . . .      . .   . . . . .
      
      
                                         Bm
      E|-10-10-9-9-----------------------2-------|
      B|-----------10-10-------10--------3-------|
      G|-----------------11-9-----11----4-------|
      D|---------------------------------4-------|
      A|---------------------------------2-------|
      E|-----------------------------------------|
      
      
         Bm
      E|-2---------------------------------------|
      B|-3---10-10-10-8-7--8-8-8~----------------|
      G|-4---------------------------------------|
      D|-4---------------------------------------|
      A|-2---------------------------------------|
      E|-----------------------------------------|
      
      
      Violão 2
      
      Intro:
      BmBm  G D5(9) A5(9)
       ↓ x ↑↑ x ↓↑
      
      D5(9)  ↓ x ↑↑ x A5(9) ↓
      
      Parte 1:
      Bm  G D5(9) A5(9)
      ↓↓↓↓   ↓↓↓↓  (abafado)
      
      
         Bm              A5(9)
      E|-----------------0-----------------------|
      B|-3-3-3-3---------0-----------------------|
      G|-4-4-4-4--2p0----2-----------------------|
      D|-4-4-4-4------4--2-----------------------|
      A|-2-2-2-2---------0-----------------------|
      E|-----------------------------------------|
      
      
      Bm  G  D5(9):  ↓ x ↑↑ x ↓↑
      
      A5(9):   ↓ x ↑↑ x ↓
      
      Refrão:
      Bm G D5(9) A5(9)
      
      Continuação da Música e Variações
      
      (Repetir Introdução)
      
      Variação da Primeira Parte
      
      Bm: ↓↓↓(abafado)
      
      G:  ↓↓↓ (abafado) ↓↓
      
      D5(9)  A5(9) :  ↓ x ↑↑ x ↓↑
      
      
        Bm                  A5(9)
       -2-x-2---------------0--0-0-0-0----------
       -3-x-3-----0h2p0-----0--0-0-0-0----------
       -4-x-4-----------4---2--2-2-2-2----------
       -4-x-4---------------2--2-2-2-2----------
       -2-x-2---------------0--0-0-0-0----------
       -----------------------------------------
      
      
       Bm  G  D5(9)  A5(9)
      
      Refrão Final:
      
                        A5(9)            Bm
      E|---------------------------------2-------|
      B|-3-3-2-2--------0---2------------3-------|
      G|---------2-2----2-----4----------4-------|
      D|-------------4--2----------------4-------|
      A|----------------0----------------2-------|
      E|-----------------------------------------|
      
      
      Bm:  ↓ x ↑↑ x   G: ↓↓↓
      
      
      Intro: Bm  G  D5(9)  A5(9)
      
      Parte 1:
       Bm          G
      Deixa eu entrar
                     D5(9)
      Dentro do seu coração
             A5(9)                  Bm  A5(9)
      Descobrir pouco a pouco a paixão
       Bm
      Tenta...
             G                        D5(9)
      Me sentir em quanto eu sinto você
                    A5(9)
      Dessa vez é amor
      
      É pra valer
      
      Refrão:
                  Bm
      Ai ai ai ai ai
                             G
      Não tem jeito de esquecer
                       D5(9)
      Você de mim não sai
                        A5(9)
      Minha vida sem você
                    Bm
      Não tem sentido
      G                 A5(9)
        Eu não aguento mais
      
                  Bm
      Ai ai ai ai ai
                             G
      Não tem jeito de esquecer
                       D5(9)
      Você de mim não sai
                        A5(9)
      Minha vida sem você
                    Bm
      Não tem sentido
      G                 A5(9)
        Eu não aguento mais
      
      Você de mim não sai
      
      Continuação e Variações
      
      (Repete Intro)
      
      Variação da Primeira Parte
      
       Bm          G
      Deixa eu entrar
                     D5(9)
      Dentro do seu coração
             A5(9)                  Bm  A5(9)
      Descobrir pouco a pouco a paixão
       Bm
      Tenta...
             G                        D5(9)
      Me sentir em quanto eu sinto você
                    A5(9)
      Dessa vez é amor
      
      É pra valer
      
      Refrão Final:
                  Bm
      Ai ai ai ai ai
                             G
      Não tem jeito de esquecer
                       D5(9)
      Você de mim não sai
                        A5(9)
      Minha vida sem você
                    Bm
      Não tem sentido
      G                 A5(9)
        Eu não aguento mais
      
                  Bm
      Ai ai ai ai ai
                             G
      Não tem jeito de esquecer
                       D5(9)
      Você de mim não sai
                        A5(9)
      Minha vida sem você
                    Bm
      Não tem sentido
      G                 A5(9)
        Eu não aguento mais
      
                  Bm
      Ai ai ai ai ai
                             G
      Não tem jeito de esquecer
                       D5(9)
      Você de mim não sai
                        A5(9)
      Minha vida sem você
                    Bm
      Não tem sentido
      G                     Bm
        Eu não aguento mais
      
                  Bm
      Ai ai ai ai ai
                             G
      Não tem jeito de esquecer
                       D5(9)
      Você de mim não sai
                        A5(9)
      Minha vida sem você
                    Bm
      Não tem sentido
      G                 A5(9)
        Eu não aguento mais
      
                  Bm
      Ai ai ai ai ai
                             G
      Não tem jeito de esquecer
                       D5(9)
      Você de mim não sai
                        A5(9)
      Minha vida sem você
                    Bm
      Não tem sentido
      G                 A5(9)
        Eu não aguento mais
                  Bm  G
      Ai ai ai ai ai
        Composição: Diego Damasceno, Daniel Damasceno, Thiago RossiColaboração e revisão:
        • gustavofofao

        Comentários 103

        140 .
        • Thiago Thiago: Em 18/05/2014 12:46

          Gostei

        • ivonj22 ivonj22: Em 04/09/2013 01:34

          e as mulheres tivesem enterese em mim eu jamais faria isso no meu cabelo agora entendo porque dis o ditado deus so da asas a quem nao quer v

        • ivonj22 ivonj22: Em 04/09/2013 01:33

          como e que ele tao bonito fas isso o cabelo e porque eu nao sou bonito mulher nenhuma tem interrese em mim mas seu fosse bonito como o luan

        • ivonj22 ivonj22: Em 04/09/2013 01:32

          o luan santana parece que nao gosta de ser bonito

        • Victoria Victoria: Em 17/08/2013 21:18

          vou tentar tocar essa hj ! ela eh facil ? pelos acordes parece mais nao sei ! #partiu #vcdemimnaosai

        • maevi.silva.7 maevi.silva.7: Em 26/03/2013 09:22

          te amo luam

        • bel92 bel92: Em 25/11/2012 20:41

          facim

        • wesley.ieie wesley.ieie: Em 12/10/2012 14:24

          a Num é Muito Boa Não, Mais dá pra levar.

        • oakley123344 oakley123344: Em 02/09/2012 14:12

          zica essa musica

        • emerson.silva.9 emerson.silva.9: Em 12/08/2012 12:57

          o solo dessa musica é muito massa !!!!!

        140 cancelar

        conseguiu tocar?

        • •••

        covers

        Grave um vídeo tocando Você de Mim Não Sai e mande pra gente!

        Ex.: http://www.youtube.com/watch?v=0IvSvIwGdwk
        ver covers de outras músicas »
        0:00 / 0:00
        2 versões de violão dificuldade exibições contribuição e correção
        2 versões de guitarra dificuldade exibições contribuição e correção
        2 versões de cavaco dificuldade exibições contribuição e correção
        2 versões de teclado dificuldade exibições contribuição e correção
        1 versão de Guitar Proformatodownloadscontribuição
        play/pausefechar subir/descer velocidade
        6ª corda E5ª corda A4ª corda D3ª corda G2ª corda B1ª corda E
          acordes
          transcrição verificada gustavofofao instrutor de violão
          publicidade
          fechar
          ok