Cifra Club

Aprenda

Chove en santiago

Luar na Lubre

Cifra: Principal (violão e guitarra)
tom: Am
Intro

    F      G      Am
E|-----------------------------| |
B|-----1------3------1--1--1---| |
G|----2-2----4-4----2-2--2--2--| | Repetir varias
D|---3---3--5---5--2---2--2--2-| |      veces
A|----------------0------------| |
E|--1------3-------------------| |


Parte 1


                  (Empieza aquí la letra)
    F      G      Am           F      G
E|-------------------------------------------|
B|-----1------3------1--1--1------1------3---|
G|----2-2----4-4----2-2--2--2----2-2----4-4--|
D|---3---3--5---5--2---2--2--2--3---3--5---5-|
A|----------------0--------------------------|
E|--1------3-------------------1------3------|

   Am           F      G       Am
E|------------------------------------------|
B|----1--1--1------1------3-------1--1--1---|
G|---2-2--2--2----2-2----4-4-----2-2--2--2--|
D|--2---2--2--2--3---3--5---5---2---2--2--2-|
A|-0---------------------------0------------|
E|--------------1------3--------------------|

   Em           F      G      Am
E|-----------------------------------------|
B|----0--0--0------1------3------1--1--1---|
G|---0-0--0--0----2-2----4-4----2-2--2--2--|
D|--2---2--2--2--3---3--5---5--2---2--2--2-|
A|----------------------------0------------|
E|-0------------1------3-------------------|

    F      G      Am
E|-----------------------------|
B|-----1------3------1--1--1---|
G|----2-2----4-4----2-2--2--2--|
D|---3---3--5---5--2---2--2--2-|
A|----------------0------------|
E|--1------3-------------------|


Punteo

E|-7-5---------5-------------------7-9-5-7-7--7-9-5-7-|
B|----8-7-7-5-7------7-------7----8-----7----8-----7--|
G|--------------7-7-6-6-4-4---6--7----------7---------|
D|----------------------------------------------------|
A|----------------------------------------------------|
E|----------------------------------------------------|


Parte 2

    F      G      Am
E|--------------------------|
B|-----1------3--------1----|
G|----2-2----4-4----2--2--2-|
D|---3---3--5---5---2-----2-|
A|----------------0---------|
E|--1------3----------------|





Intro

Parte 1

Am                F 
Chove en Santiago...
 G        Am   F 
meu doce amor...
G        Am       Em 
camelia branca do ar
F          G          Am 
brila entebrecida ao sol.
F          G          Am 
brila entebrecida ao sol.

Intro

Parte 1

Chove en Santiago...
na noite escura...
herbas de prata e sono
cobren a valeira lúa.
cobren a valeira lúa.

Punteo

Parte 2

F        G          Am 
Olla a choiva pola rúa
F        G          Am 
laio de pedra e cristal
F       G        Am 
Olla no vento esvaido
F        G           Am 
soma de cinza do teu mar.

Soma e cinza do teu mar
Santiago,lonxe do sol
agoa da mañan anterga
trema no meu corazón.
Composição de Alberto Gambino / Federico García Lorca
3 exibições
    • ½ Tom
    • Am
    • Bbm
    • Bm
    • Cm
    • C#m
    • Dm
    • Ebm
    • Em
    • Fm
    • F#m
    • Gm
    • G#m
  • Adicionar à lista

    0 comentários

    Ver todos os comentários

    Conseguiu tocar?

    0 Tocaram 0 Ainda não

    Grave um vídeo tocando Chove en santiago e nos envie!

    00:00 / 00:00
    Outros vídeos desta música
    Repetir Qualidade Automático
    Outros vídeos desta música
    00:00 / 00:00
    Automático

    Cifra Club Pro

    Aproveite o Cifra Club com benefícios exclusivos e sem anúncios
    Cifra Club Pro
    Aproveite o Cifra Club com benefícios exclusivos e sem anúncios
    OK