Cifra Club

Aprenda

Dum tempo hasta sempre

Luar na Lubre

Cifra: Principal (violão e guitarra)
tom: F
Intro 00:00
E|---------------------------------------------------------------|
B|---------------------------------------------------------------|
G|---------------------------------------------------------------|
D|-10-x--105--x--5/7--x--73--x--3/10-x--105--x--5/7--x-x-7----|
A|-8--x--8-3--x--3/5--x--51--x--1/8--x--8-3--x--3/5--x-x-5----|
E|---------------------------------------------------------------| x2

Guitarra 2
Intro 00:00                                                  °
E|-1~-------1~------1~------1~------1~-------1~------1~------1~--|
B|-1~-------1~------1~------1~------1~-------1~------1~------1~--|
G|-2~-------2~------2~------2~------2~-------2~------2~------2~--|
D|---------------------------------------------------------------|
A|---------------------------------------------------------------|
E|---------------------------------------------------------------| x2
En la segunda vuelta no suena la ultima °

Flauta
Intro 00:09
E|-13----------13---15----------15---17----------17-18--17--15---|
B|----13----13----13---13----13----13---13----13------13--13-----|
G|-------14---------------14---------------14--------------------|
D|---------------------------------------------------------------|
A|---------------------------------------------------------------|
E|---------------------------------------------------------------|

Flauta
Intro 00:13
E|-13----------13---15----------15-17-13-15-12-13-10-12-8-6-5-3/5|
B|----13----13----13---13----13----------------------------------|
G|-------14---------------14-------------------------------------|
D|---------------------------------------------------------------|
A|---------------------------------------------------------------|
E|---------------------------------------------------------------|

Flauta
Intro 00:13
E|-13----------13---15----------15-17-13-15-12-13-10-12-8-6-5-3/5|
B|----13----13----13---13----13----------------------------------|
G|-------14---------------14-------------------------------------|
D|---------------------------------------------------------------|
A|---------------------------------------------------------------|
E|---------------------------------------------------------------|

Guitarra 1
Verso 00:18
E|---------------------------------------------------------------|
B|---------------------------------------------------------------|
G|---------------------------------------------------------------|
D|-10-x--105--x--5/7--x--73--x--3/10-x--105--x--5/7--x--7/3-x-|
A|-8--x--8-3--x--3/5--x--51--x--1/8--x--8-3--x--3/5--x--5/1-x-|
E|---------------------------------------------------------------|
   F        C       Dm      Bb      F        C       Dm      Bb  |
Flauta                                                           |x2
Verso 00:18                                                      |
E|-5--------------------------------5-----5-8-6-5----------------|
B|----8--6-8~----6-5-6-5---------------6----------8--6---6-5-6~--|
G|-----------------------7-5-------------------------------------|
D|---------------------------8~----------------------------------|
A|---------------------------------------------------------------|
E|---------------------------------------------------------------|

Guitarra 1
Verso 00:36
E|---------------------------------------------------------------|
B|---------------------------------------------------------------|
G|---------------------------------------------------------------|
D|-10-x--105--x--5/7--x--73--x--3/10-x--105--x--5/7--x-7-x-7x-|
A|-8--x--8-3--x--3/5--x--51--x--1/8--x--8-3--x--3/5--x-5-x-5x-|
E|---------------------------------------------------------------|
   F        C       Dm      Bb      F        C       Dm   Dm  Dm |
Flauta                                                           |
Verso 00:36                                                      |
E|-5--------------------------------5-----5-8-6-5----------------|
B|----8--6-8~----6-5-6-5---------------6----------8--6---6-5-6~--|
G|-----------------------7-5-------------------------------------|
D|---------------------------7~----------------------------------|
A|---------------------------------------------------------------|
E|---------------------------------------------------------------|

Guitarra 1
Coro 00:46
E|-------5--------------5--------------5--------------5----------|
B|-----6---6----------5---5----------6---6----------5---5--------|
G|---7-------7------6-------6------7-------7------6-------6------|
D|---------------------------------------------------------------|
A|-5-----------------------------5-------------------------------|
E|----------------6-----------------------------6----------------| x4

Guitarra 2
Coro 00:46
E|-------5--------------1--------------5--------------1----------|
B|-----6--------------3--------------6--------------3------------|
G|---7--------------3--------------7--------------3--------------|
D|---------------------------------------------------------------|
A|-5--------------1--------------5--------------1----------------|
E|---------------------------------------------------------------| x4

Flauta
Coro 00:46
E|---------------------------------------------------------------|
B|----------5~---------------8-6-5----------------5~-6~-5--------|
G|-7~--5/7~-------7~---5/7~------------7~---5/7~-----------7~-5~-|
D|---------------------------------------------------------------|
A|---------------------------------------------------------------|
E|---------------------------------------------------------------| x2

Flauta
postcoro 01:04
   Dm        Bb        Dm       Bb       Dm     Bb      Dm
E|---------------------------------------------------------------|
B|---------6565665-----------6565685-----------6565665-----------|
G|-777-5-7-----------777-5-7-----------777-5-7----------7~---5~--|
D|---------------------------------------------------------------|
A|---------------------------------------------------------------|
E|---------------------------------------------------------------| x2
en la segunda vuelta el Dm de el final se rasguea varias veces

Flauta
postCoro 01:22
     F        C     Dm          Bb         F       C      Dm     Dm
E|--------5-6-8-5~--8-10--12-13-10----8~--------5-6-8-5~-8-6-5--------|
B|---6~-8--------------------------10------6~-8----------------8-6-8~-|
G|-5-------------------------------------5----------------------------|
D|--------------------------------------------------------------------|
A|--------------------------------------------------------------------|
E|--------------------------------------------------------------------| x2

Flauta
postCoro 01:40
       F   C   Bb       F   C   Bb      F   C   Bb      F   C   Bb
E|-----5-6-5-5----------5-6-5-5---------------------------------------|
B|-6-8------8-8-6~--6-8------8-8------5-6-5-5-------------------------|
G|------------------------------7~--7------7-7-5--------5-------------|
D|-----------------------------------------------8~--7-8-8-7-8-7-5-3--|
A|--------------------------------------------------------------------|
E|--------------------------------------------------------------------|

Guitarra 1
Post coro 01:40
E|---------------1--1--------------1--1--1---------1--1--1------------|
B|----------------1--1--------------1--1------------1--1--1-----------|
G|-----------------2--2-----------2--2--2---------2--2--2-------------|
D|--------------------------------------------------------------------|
A|--------------------------------------------------------------------|
E|--------------------------------------------------------------------|

Guitarra 1 y la segunda guitarra con acordes
Verso 01:58
E|---------------------------------------------------------------|
B|---------------------------------------------------------------|
G|---------------------------------------------------------------|
D|-10-x--105--x--5/7--x--73--x--3/10-x--105--x--5/7--x--7/3-x-|
A|-8--x--8-3--x--3/5--x--51--x--1/8--x--8-3--x--3/5--x--5/1-x-|
E|---------------------------------------------------------------|
   F        C       Dm      Bb      F        C       Dm      Bb  |
Flauta                                                           |x3
Verso 01:58                                                      |
E|---------------------------------------------------------------|
B|-6~---6-5--------6~---6-5--------6~---6-5---------6-5----------|
G|----------5/7-------------5~--------------5/7---------7-5-7~---|
D|---------------------------------------------------------------|
A|---------------------------------------------------------------|
E|---------------------------------------------------------------|

Guitarra 1
Coro 02:26
E|-------5--------------5--------------5--------------5----------|
B|-----6---6----------5---5----------6---6----------5---5--------|
G|---7-------7------6-------6------7-------7------6-------6------|
D|---------------------------------------------------------------|
A|-5-----------------------------5-------------------------------|
E|----------------6-----------------------------6----------------| x4

Guitarra 2
Coro 02:26
E|-------5--------------1--------------5--------------1----------|
B|-----6--------------3--------------6--------------3------------|
G|---7--------------3--------------7--------------3--------------|
D|---------------------------------------------------------------|
A|-5--------------1--------------5--------------1----------------|
E|---------------------------------------------------------------| x4

Flauta
Coro 02:26
E|---------------------------------------------------------------|
B|----------5~---------------8-6-5----------------5~-6~-5--------|
G|-7~--5/7~-------7~---5/7~------------7~---5/7~-----------7~-5~-|
D|---------------------------------------------------------------|
A|---------------------------------------------------------------|
E|---------------------------------------------------------------| x2

Flauta
postcoro 02:44
   Dm        Bb        Dm       Bb       Dm     Bb      Dm
E|---------------------------------------------------------------|
B|---------6565665-----------6565685-----------6565665-----------|
G|-777-5-7-----------777-5-7-----------777-5-7----------7~---5~--|
D|---------------------------------------------------------------|
A|---------------------------------------------------------------|
E|---------------------------------------------------------------| x2
en la segunda vuelta el Dm de el final se rasguea varias veces

Flauta
postCoro 03:02
     F        C     Dm          Bb         F       C      Dm     Dm
E|--------5-6-8-5~--8-10--12-13-10----8~--------5-6-8-5~-8-6-5--------|
B|---6~-8--------------------------10------6~-8----------------8-6-8~-|
G|-5-------------------------------------5----------------------------|
D|--------------------------------------------------------------------|
A|--------------------------------------------------------------------|
E|--------------------------------------------------------------------| x2

Flauta
postCoro 03:20
       F   C   Bb       F   C   Bb      F   C   Bb      F   C   Bb
E|-----5-6-5-5----------5-6-5-5---------------------------------------|
B|-6-8------8-8-6~--6-8------8-8------5-6-5-5-------------------------|
G|------------------------------7~--7------7-7-5--------5-------------|
D|-----------------------------------------------8~--7-8-8-7-8-7-5-3--|
A|--------------------------------------------------------------------|
E|--------------------------------------------------------------------|

Guitarra 1
Post coro 03:20
E|---------------1--1--------------1--1--1---------1--1--1------------|
B|----------------1--1--------------1--1------------1--1--1-----------|
G|-----------------2--2-----------2--2--2---------2--2--2-------------|
D|--------------------------------------------------------------------|
A|--------------------------------------------------------------------|
E|--------------------------------------------------------------------|
Composição de A. espinosa / d. cerqueiro
    • ½ Tom
    • A
    • Bb
    • B
    • C
    • Db
    • D
    • Eb
    • E
    • F
    • F#
    • G
    • Ab
  • Adicionar à lista

    0 comentários

    Ver todos os comentários

    Conseguiu tocar?

    0 Tocaram 0 Ainda não

    Grave um vídeo tocando Dum tempo hasta sempre e nos envie!

    00:00 / 00:00
    Outros vídeos desta música
    Repetir Qualidade Automático
    Outros vídeos desta música
    00:00 / 00:00
    Automático

    Cifra Club Pro

    Aproveite o Cifra Club com benefícios exclusivos e sem anúncios
    Cifra Club Pro
    Aproveite o Cifra Club com benefícios exclusivos e sem anúncios
    OK