Cifra Club

Aprenda

Nada Apaga Esse Amor

Lucas Ferreira

Cifra: Principal (violão e guitarra)
tom: G
Intro: (Piano) Am G D D9 (2x)

Riff intro (violão):

E|-7h8-7-----------------------------------|
B|--------10-8-8h10-8------------8~~/3~~---|
G|--------------------9-7-7/9~~------------|
D|-----------------------------------------|
A|-----------------------------------------|
E|-----------------------------------------|

G               G/B              C9
Hoje quando eu acordei senti um vazio
G                 G/B               C9
Nada no meu mundo não fazia mais sentido
Am                 G               D
Sinto que a felicidade decidiu partir
                 Am
Quando você se foi não posso entender
Am               G                  D                   D
Você ter me deixado eu não tenho mais motivos pra sorrir
Riff1       C                D
Sem você aqui meu amor

Riff 1
E|--3-2-2~-3~-0~~--|
B|--3-3-1~-1~-1~~--|
G|-----------------|
D|-----------------|
A|-----------------|
E|-----------------|

Refrão:
G                                 Bm
Sei, eu sei que um dia você vai voltar
                             C9
Esquece esse orgulho volta e vem me encontrar
      D
Vem viver nosso sonho de amor
G                                 Bm
Não, eu não vou conseguir te esquecer
                          C9
Você está em mim não só enquanto eu viver
                D          Am
Sei que nada apaga esse amor

Solo guitarra(Am G D D)

E|-------15----15-17~~-|-------15----15-17-17b19-17~-17p15--|
B|-15/17----17---------|-15/17----17----------------------17|
G|---------------------|------------------------------------|
D|---------------------|------------------------------------|
A|---------------------|------------------------------------|
E|---------------------|------------------------------------|

E|-19-20-19-17-15----|------------------------15----|-17-b17r19-17~~|
B|----------------17-|-15p17~-15-13-12~-12-13----15~|---------------|
G|-------------------|------------------------------|---------------|
D|-------------------|------------------------------|---------------|
A|-------------------|------------------------------|---------------|
E|-------------------|------------------------------|---------------|

G               G/B              C9
Hoje quando eu acordei senti um vazio
G                 G/B               C9
Nada no meu mundo não fazia mais sentido
Am                 G               D
Sinto que a felicidade decidiu partir
                 Am
Quando você se foi não posso entender
Am               G                  D                   D
Por você ter me deixado eu não tenho mais motivos pra sorrir
     C                D
Sem você aqui meu amor

Refrão
G                                 Bm
Sei, eu sei que um dia você vai voltar
                             C9
Esquece esse orgulho volta e vem me encontrar
      D
Vem viver nosso sonho de amor
G                                 Bm
Não, eu não vou conseguir te esquecer
                        C9
Você esta em mim não só enquanto eu viver
                D
Sei que nada apaga

A                                 C#m
Sei, eu sei que um dia você vai voltar
                              D9
Esquece esse orgulho volta e vem me encontrar
      E
Vem viver nosso sonho de amor
A                              C#m
Não, eu não vou conseguir ti esquecer
                        D9
Você esta em mim só enquanto eu viver
         E                    A
Sei que nada apaga esse amor

Final: ||:Bm | A | E/G# :| D9 | A9 ||
Composição de Augusto Cabrera
Colaboração e revisão:
  • luiz antonio
  • Edimilson Couto
  • darlei santos
770 exibições
    • ½ Tom
    • A
    • Bb
    • B
    • C
    • Db
    • D
    • Eb
    • E
    • F
    • F#
    • G
    • Ab
  • Adicionar à lista

    0 comentários

    Ver todos os comentários

    Conseguiu tocar?

    1 Tocaram 0 Ainda não

    Grave um vídeo tocando Nada Apaga Esse Amor e nos envie!

    00:00 / 00:00
    Outros vídeos desta música
    Repetir Qualidade Automático
    Outros vídeos desta música
    00:00 / 00:00
    Automático

    Cifra Club Pro

    Aproveite o Cifra Club com benefícios exclusivos e sem anúncios
    Cifra Club Pro
    Aproveite o Cifra Club com benefícios exclusivos e sem anúncios
    OK