Cifra Club

2020 Em Uma Música

Lucas Inutilismo

Cifra: Principal (violão e guitarra)
tom: Fm
Bom, fim de ano chegou

É hora da gente olhar pra trás

E relembrar de tudo o que aconteceu!

Mas como seria o ano de 2020 em uma música?

[Intro] Fm  Cm  Eb  Bb

                Fm
I've been tryna call
                Cm
I've been on my own for long enough
               Eb                   Bb
Maybe you can show me how to love, maybe

I look around and
Fm
Sin City's cold and empty
Cm
No one's around to judge me
Eb                               Bb
I can't see clearly when you're gone
        Fm         Cm
I said, ooh, I'm blinded by the lights
   Eb                                Bb
No, I can't sleep until I feel your touch
        Fm         Cm
I said, ooh, I'm drowning in the night
    Eb                                    Bb
Oh, when I'm like this, you're the one I trust

(Hey, hey)

( Fm  Cm  Eb  Bb ) 

                Dm
Tastes like strawberries
       Am
On a summer evenin'
C                          G
And it sounds just like a song
          Dm
Breathe me in
          Am
Breathe me out
         C                        G
I don't know if I could ever go without
                 D5
Watermelon sugar high
                 A5
Watermelon sugar high
                 C5
Watermelon sugar high
                 G5
Watermelon sugar high
                 D5
Watermelon sugar high
                 A5
Watermelon sugar high
                 C5
Watermelon sugar high
                 G5
Watermelon sugar high

   D5                                          A5
Bitches callin' my phone like I'm locked up, nonstop
                                           C5
From the plane to the fuckin' helicopter, yeah
                                           G5
Cops pullin' up like I'm givin' drugs out, nah, nah

I'm a popstar, not a doctor
  C5                     Db5      Db5         C5
Bitches callin' my phone like I'm locked up, nonstop
 C5                   Db5     Db5          C5
From the plane to the fuckin' helicopter, yeah
 C5                      Db5    Db5        C5
Cops pullin' up like I'm givin' drugs out, nah, nah

I'm a popstar, not a doctor
 C5             Db5     Db5             C5
Ayy, shawty with the long text, I don't talk, ayy
   Db5    Db5                        C5
Shawty with the long legs, she don't walk
     Db5    Db5                    C5
Yeah, last year, I kept it on the tuck, ayy
      Db5    Db5        C5
2020, I came to fuck it up, yeah

I want a long life

   E5  E5   E5
A legendary one
   G5     F#5   E5         C5  C5 C5
I want a quick death, and a easy one
  B5      D5    E5
I want a pretty girl
       E5    E5  E5
I would've stayed at home
     G5             F#5    E5
'Cause I was doin' better alone
        C5 C5  C5
But when you said: Hello
   B5               D5        E5
I know that was the end of it all
        E5   E5  E5
I should've stayed at home
       G5                  F#5        E5
'Cause now there ain't no letting you go
      C5
Am I falling in love
         D5
With the one that could break my heart?
E5 E5    G5         F#5    E5
Oh no, I was doin' better alone
              E5 E5 E5
But when you said: Hello
   B5               D5       E5
I know that was the end of it all
              E5   E5  E5
I should've stayed at home
       G5                  F#5       E5
'Cause now there ain't no letting you go
      C5
Am I falling in love
         D5
With the one that could break my heart?
 C5 D5              B5
(Oooooh) Break my heart
  E5    G5       C5
(Oooh) Break my heart
  D5              B5
(Oooh) Break my heart

Am I falling in love

With the one that could break my heart?

              D5                  D5
I'm not your friend or anything, damn
                          A5
You think that you're the man
          A5
I think, therefore, I am
              D5                  D5
I'm not your friend or anything, damn
                          A5
You think that you're the man
          A5
I think, therefore, I am
     Bb5
Stop

Bb5
Pullin' out the coupe at the lot

Told 'em fuck 12, fuck SWAT

Bustin' all the bells out the box
F#5
I just hit a lick with the box
Ab5
Had to put the stick in a box
Bb5
Pour up the whole damn seal, I'ma get lazy
F#5                                             Ab5
I got the mojo-deals, we been trappin' like the '80s
     Bb5
She sucked a hold in soul, gotta Cash App
         F#5                 Ab5
Told 'em wipe a freaking nose, say slatt, slatt
        Bb5
I won't never sell my soul, and I can back that
      F#5              Ab5
And I really wanna know, where you at, at?

Gm
Workin' on the weekend like usual
F
Way off in the deep end like usual
Cm
They can swear they passed us, they doin' too much
D7
Haven't done my taxes, I'm too turnt up (hey)
Gm                         F
Bitch, this is fame, not clout
                                                 Cm
I don't even know what that's about, watch your mouth
                                      D7
Baby got a ego twice the size of the crib
                                        Gm
I can never tell her shit, it is what it is
                                   F
Said what I had to and did what I did
                                Cm
Never turn my back on FBG, God forbid
                                          D7
Virgil got the Patek on my wrist doing frontflips
                                              Gm
Giving you my number, but don't hit me on no dumb shit

Em                                    Em
Woo, hunnid thousand for the cheapest ring
    Em                       Em
On a his finger, lil' bitch, woo
             Em                           F#5
I done flew one out to Spain to be in my domain
                         Em
And Audemar'd the bitch, woo
                            Em
Dropped three dollars on a ring
          Em       Em
Call it Bentley truck, lil' bitch, woo
           Em
I was in the trap serving cocaine
F#5                          Em
I ain't been the same since, woo
          Em
Granny, she was standing right there
           Em                    Em
While I catch a play on a brick, woo
                               Em
I make them lil' fucking go haywire

F#5
Taliban
           Em
I said, certified freak
Em     Em
Seven days a week
Em
Wet-ass pussy
Em                     F#5
Make that pull-out game weak, woo

( B5  C5  Db5 )

(There's some hoes in this house)

(There's some hoes in this house)

(There's some hoes in this house)

(There's some hoes in this house)

   B5        C5   Db5
Yeah, yeah, yeah, yeah
B5           C5        Db5
Yeah, you fucking with some wet-ass pussy
         B5                       C5       Db5
Bring a bucket and a mop for this wet-ass pussy
          B5                        C5       Db5
Give me everything you got for this wet-ass pussy
  B5
Now from the top, make it drop
    C5
That's some wet-ass pussy
           B5
Now get a bucket and a mop
              C5
That's some wet-ass pussy
            B5
I'm talking WAP, WAP, WAP
              C5
That's some wet-ass pussy

   B5
Macaroni in a pot
              C5
That's some wet-ass pussy

Eb5 Eb5  Eb5  Eb5 Eb5    Eb5
Ho-ho-ho-ho-how you like that?
       Eb5            Eb5           E5           Eb5
You gon' like that, that-that-that-that, that-that-that-that
      Eb5                                   E5  Eb5
How you like that? (Bada-bing, bada-boom-boom-boom)
  Eb5            Eb5          E5            Eb5
You like that, that-that-that-that, that-that-that-that?
Eb5
Look at you, now look at me
Eb5
Look at you, now look at me
Eb5
Look at you, now look at me
E5            Eb5
How you like that?
Eb5
Look at you, now look at me
Eb5
Look at you, now look at me
Eb5
Look at you, now look at me
E5
How you like that?

   Eb5
Your girl need it all and that’s a hundred

Baek gae junge baek nae mokseul weonhae

Karma, come and get some

Ttakajiman eojjeol su eopjana

What’s up, I’m right back

Bangaswereul cock back

Plain Jane get hijacked

Don’t like me?

Then tell me how you like that, like that

Eb5
É o Niack chega, embraza

E dá choque no seu sistema

Hoje eu te levo pra casa
                    Eb5
Só não me arruma problema

Tu pediu pra eu te botar

E eu boto com pressão

Então vai, já se prepara

Na raba toma tapão

Se-pre se-pre se prepara, na raba toma tapão

Se prepara para para, na raba toma tapão

Oh, Juliana

O que tu quer de mim?

Já falei que eu passo o rodo

E não caio em qualquer papim

Eb5
Oh, Juliana
                 Db5
O que tu quer de mim?

Já falei que eu passo o rodo
                        C5
E não caio em qualquer papim

Então desliza, desliza

Vem jogando esse bundão

Prepara, pode pá

Vai ser só colocadão

Vai Luan

Vai Luan

Pa pa pa pa pa pa pa pa

[Tab - Riff]

Parte 1 De 4

E|----------------------------------------------------|
B|----------------------------------------------------|
G|----------------------------------------------------|
D|--0/2--2--2--2--2--0/2--2--2--2--2--2--2--3-3-3-3---|
A|--0/2--2--2--2--2--0/2--2--2--2--2--2--2--3-3-3-3---|
E|------------------------------------------1-1-1-1---|

Parte 2 De 4

E|----------------------------------------------------|
B|----------------------------------------------------|
G|----------------------------------------------------|
D|--0/2--2--2--2--2--0/2--2--2--2--2--2--2--3-3-3-3---|
A|--0/2--2--2--2--2--0/2--2--2--2--2--2--2--3-3-3-3---|
E|------------------------------------------1-1-1-1---|

Parte 3 De 4

E|----------------------------------------------------|
B|----------------------------------------------------|
G|----------------------------------------------------|
D|--0/2--2--2--2--2--0/2--2--2--2--2--2--2--3-3-3-3---|
A|--0/2--2--2--2--2--0/2--2--2--2--2--2--2--3-3-3-3---|
E|------------------------------------------1-1-1-1---|

Parte 4 De 4

E|----------------------------------------------------|
B|----------------------------------------------------|
G|----------------------------------------------------|
D|--0/2--2--2--2--2--0/2--2--2--2--2--2--2--3-3-3-3---|
A|--0/2--2--2--2--2--0/2--2--2--2--2--2--2--3-3-3-3---|
E|------------------------------------------1-1-1-1---|

Pa pa pa pa pa pa pa

Pa pa pa pa pa pa pa

Pa pa pa pa pa pa pa (gravou)

Pa pa (hey)

  Em
Cheguei pra gente brincar
        F5       Em
Então, desce pro play, você vai gostar
 F5  Em
No way,     vamo argumentar
 F5         Em
Quero ver descer até o pai cansar
 C       D                     Em                      G
Sim, vem cá jogar pra mim, vem cá jogar pra mim, vem gostosin'
 C       D                     Em
Sim, vem cá jogar pra mim, vem cá jogar pra mim

Sobe, desce, para, depois joga na minha cara e faz

[Tab - Riff]

Parte 1 De 4

E|----------------------------------------------------|
B|----------------------------------------------------|
G|----------------------------------------------------|
D|--0/2--2--2--2--2--0/2--2--2--2--2--2--2--3-3-3-3---|
A|--0/2--2--2--2--2--0/2--2--2--2--2--2--2--3-3-3-3---|
E|------------------------------------------1-1-1-1---|

Parte 2 De 4

E|----------------------------------------------------|
B|----------------------------------------------------|
G|----------------------------------------------------|
D|--0/2--2--2--2--2--0/2--2--2--2--2--2--2--3-3-3-3---|
A|--0/2--2--2--2--2--0/2--2--2--2--2--2--2--3-3-3-3---|
E|------------------------------------------1-1-1-1---|

Parte 3 De 4

E|----------------------------------------------------|
B|----------------------------------------------------|
G|----------------------------------------------------|
D|--0/2--2--2--2--2--0/2--2--2--2--2--2--2--3-3-3-3---|
A|--0/2--2--2--2--2--0/2--2--2--2--2--2--2--3-3-3-3---|
E|------------------------------------------1-1-1-1---|

Parte 4 De 4

E|----------------------------------------------------|
B|----------------------------------------------------|
G|----------------------------------------------------|
D|--0/2--2--2--2--2--0/2--2--2--2--2--2--2--3-3-3-3---|
A|--0/2--2--2--2--2--0/2--2--2--2--2--2--2--3-3-3-3---|
E|------------------------------------------1-1-1-1---|

Pa pa pa pa pa pa pa pa

Pa pa pa pa pa pa pa

Pa pa pa pa pa pa

Sobe, desce, para, depois joga na minha cara e faz

[Tab - Riff]

Parte 1 De 4

E|-----------------------------------------------------|
B|-----------------------------------------------------|
G|-----------------------------------------------------|
D|----2--2----2----2--2--------------------------------|
A|----2--2----2----2--2--------------------------------|
E|-----------------3-----------------------------------|

Parte 2 De 4

E|-----------------------------------------------------|
B|-----------------------------------------------------|
G|-----------------------------------------------------|
D|----2--2----2----2--2--------------------------------|
A|----2--2----2----2--2--------------------------------|
E|-----------------3-----------------------------------|

Parte 3 De 4

E|-----------------------------------------------------|
B|-----------------------------------------------------|
G|-----------------------------------------------------|
D|----2--2----2----2--2--------------------------------|
A|----2--2----2----2--2--------------------------------|
E|-----------------3-----------------------------------|

Parte 4 De 4

E|-----------------------------------------------------|
B|-----------------------------------------------------|
G|-----------------------------------------------------|
D|----2--2----2----2--2--------------------------------|
A|----2--2----2----2--2--------------------------------|
E|-----------------3-----------------------------------|

Pa pa pa pa pa

Pa pa pa pa pa

Pa pa pa pa pa

Pa pa pa

                Bbm    Fm
Só basta você me ligar
 Ab                      Eb
Que eu vou correndo te encontrar
                Bbm    Fm
Só basta você me ligar
 Ab                      Eb
Que eu vou correndo te encontrar

Bbm       Fm        Ab         Eb
Eu já te superei, certeza eu superei
Bbm             Fm
Mas não manda mensagem outra vez
Ab      Eb
Senão recairei

      C9                   Am                     
E agora eu vou fazer uma máquina do tempo
       Em
Vou encher ela de boldo
      G            C9
Vou voltar pro passado e reescrever tudo de novo
             Am                       Em
Vou pros anos '70 encontrar com o meu sogro
    G          C9
Mas eu to sem amor com o bolso cheio de onça

       Am
Ninguém se cansa
              Em            G
Vou cantar sofrência igual Marília Mendonça
           C9              Am
Nossa vizinhança já já se cansa
             Em
Vou cantar sofrência

   G
I'ma show you how to get it
        Abm             
It go, right foot up, left foot slide
F#         
Left foot up, right foot slide
  Abm                   
Basically, I'm saying either way

We 'bout to slide, ayy
 F#                      
Can't let this one slide, ayy
                 Abm           B
Don't you wanna dance with me? No?
                            F#  E
I could dance like Michael Jackson
                      Abm  B
I could give you thug passion
                        F#             E
It's a Thriller in the trap where we from
                         Ab5
Baby, don't you want to dance with me?
B5                            F#5 E5
Brand new Lamborghini, fuck a cop car
                                     Ab5
With the pistol on my hip like I'm a cop (Yeah, yeah, yeah)
B5                              F#5  E9
Have you ever met a real super rockstar?
                                     Ab5 
This ain't no guitar, bitch, this a Glock
B5                                     F#5   E5
My Glock told me to promise you gon' squeeze me
                                  Ab5
You better let me go the day you need me
B5                                       F#5   E9
Soon as you up me on that fella, get to bustin

                             Dm
Switchin' them positions for you
         Am                             Bb
Cookin' in the kitchen and I'm in the bedroom
              Gm
I'm in the Olympics, way I'm jumping through hoops
Dm      Am                              Bb
Know my love infinite, nothin' I wouldn't do
       Gm
That I won't do, switchin' for
Dm        Am
Perfect, perfect
                       Bb    Gm
You're too good to be true (oooh)
                     Dm
But I get tired of runnin'
Am                            Bb     Gm
Fuck it, now I'm runnin' with you (with you)
     Dm
The boy you got that yummy-yum
Am                    Bb     Gm
That yummy-yum, that yummy-yummy
                            Dm
And boy you got that yummy-yum
Am                    Bb   Gm
That yummy-yum, that yuum

'Cause I'll be

Switchin' them positions for you

( D5  A5  Bb5  G5 )
( D5  A5  Bb5  G5 )

       Db5  F#5        B5           E5
'Cause I-I-I'm in the stars tonight
             Db5       F#5              B5           E5
So watch me bring the fire and set the night alight (hey)
 Db5                F#5           B5             E5
Shining through the city with a little funk and soul
         Db5      F#5        B5     E5
So I'ma light it up like dynamite, whoa oh oh

E5                       A5
Day to night to morning, keep with me in the moment
D5                          D5
I'd let you had I known it, why don't you say so?
E5                  A5
Didn't even notice, no punches left to roll with
D5                          B5
You got to keep me focused, you want it, say so

[Tab - Riff Final]

E|----------------------------------------------------|
B|----------------------------------------------------|
G|----------------------------------------------------|
D|-----1--1-3-4--4-3--1-------------------------------|
A|-----1--1-3-4--4-3--1-------------------------------|
E|----------1-2--2-1----------------------------------|

Fill 'em with the venom, and eliminate 'em

Other words, I Minute Maid 'em

I don't want to hurt 'em, but I did 'em in a fit of rage

I'm murderin' again, nobody will evade him

I'm finna kill 'em and dump all the fuckin' bodies in a lake

Obliteratin' everything, incineratin' and renegade 'em

And I make anybody who want it with the pen afraid

But don't nobody want it but they're gonna get it anyway

'Cause I'm beginnin' to feel like I'm mentally ill

I'm Atilla, kill or be killed, I'm a killer

Be the vanilla gorilla

You're bringin' the killer within me, out of me

You don't want to be the enemy of the demon

Who went in me, and be on the recieving of me

What stupidity, it'd be

Every bit of me is the epitome of a spitter

When I'm in the vicinity, motherfucker, you better duck

Or you finna be dead the minute you run into me

A hundred percent of you is a fifth of a percent of me

I'm 'bout to fuckin' finish you bitch, I'm unfadable

You wanna battle, I'm available

I'm blowin' up like an inflatable

I'm undebatable, I'm unavoidable

I'm unevadable

I'm on the toilet bowl

I got a trailer full of money and I'm paid in full

I'm not afraid to pull the

Man stop
00:00 / 00:00
Outros vídeos desta música
Repetir
Outros vídeos desta música
Composição de Lucas Inutilismo
Colaboração e revisão:
  • Argemiro Junior
271 exibições
    • ½ Tom
    • Am
    • Bbm
    • Bm
    • Cm
    • C#m
    • Dm
    • Ebm
    • Em
    • Fm
    • F#m
    • Gm
    • G#m
  • Adicionar à lista

    0 comentários

    Ver todos os comentários

    Conseguiu tocar?

    0 Tocaram 1 Ainda não

    Grave um vídeo tocando 2020 Em Uma Música e nos envie!

    Entre para oCifra Club PRO

    Tenha acesso a benefícios exclusivos no App e no Site

    • Chega de anúncios

    • Prioridade de compra em lançamentos

    • Mais recursos no app do Afinador

    • Atendimento Prioritário

    • Descontos nos produtos Cifra Club

    • Ajude a produzir mais conteúdo

    00:00 / 00:00

    Cifra Club Pro

    Aproveite o Cifra Club com benefícios exclusivos e sem anúncios
    Cifra Club Pro
    Aproveite o Cifra Club com benefícios exclusivos e sem anúncios
    OK