Cifra Club

Aprenda

Motivo Pra Agradecer

Lucas Lucco

Cifra: Principal (violão e guitarra)
Tom: G
[Intro] G

E|-2------2------2--------------------------|
B|---3------3------3---3--------------------|
G|-----4------4------4----------------------|
D|------------------------------------------|
A|------------------------------------------|
E|-3------3------3--------------------------|

[Primeira Parte] 

[Dedilhado Padrão]

   D
E|-2------2-------2--------2----------------|
B|---3------3-------3--------3--------------|
G|-----2------2-------2--------2------------|
D|-0------0-------0--------0----------------|
A|------------------------------------------|
E|------------------------------------------|

   A
E|-0------0------0------0-------------------|
B|---2------2------2------2-----------------|
G|-----2------2------2------2---------------|
D|------------------------------------------|
A|-0------0------0------0-------------------|
E|------------------------------------------|

   Bm7
E|-2------2-------2--------2----------------|
B|---3------3-------3--------3--------------|
G|-----2------2-------2--------2------------|
D|------------------------------------------|
A|-2------2-------2--------2----------------|
E|------------------------------------------|

   G7M
E|-2------2-------2--------2----------------|
B|---3------3-------3--------3--------------|
G|-----4------4-------4--------4------------|
D|------------------------------------------|
A|------------------------------------------|
E|-3------3-------3--------3----------------|

             D
Foi só te olhar 
                 A
Pra eu me apaixonar 
                   Bm7
Foi quando eu pisquei 
                       G7M
E já não me via sem você 
 
         D
Não é comum  
                         A
Sete bilhões no mundo em um 
             Bm7
Deus me atendeu 
                        G7M
Pedi por paz, ganhei você 

[Refrão]

        D
Sorri, vai 
          A
Deixa eu ver
                         Bm7
Amor, tudo em você é lindo
                         G7M
Tudo é motivo pra agradecer

        D
Sorri, vai
          A
Deixa eu ver 
                            Bm7
Amor, Deus foi tão bom comigo
                        G7M
Pedi por paz, ganhei você

        D
Sorri, vai 
          A
Deixa eu ver
                         Bm7
Amor, tudo em você é lindo
                         G7M
Tudo é motivo pra agradecer

        D
Sorri, vai
          A
Deixa eu ver 
                            Bm7
Amor, Deus foi tão bom comigo
                        G7M
Pedi por paz, ganhei você
          D  A  Bm7  G7M
Casa comigo

( D  A  Bm7  G7M )
( D  A  Bm7  G7M )
( D  A  Bm7  G7M )


[Refrão]

        D
Sorri, vai 
          A
Deixa eu ver
                         Bm7
Amor, tudo em você é lindo
                         G7M
Tudo é motivo pra agradecer

        D
Sorri, vai
          A
Deixa eu ver 
                            Bm7
Amor, Deus foi tão bom comigo
                        G7M
Pedi por paz, ganhei você

[Final] D  A  Bm7  G7M 
        D  A  Bm7  G7M
Composição de Lucas Lucco
Colaboração e revisão:
  • Thiago Almeida
  • Alifer Sanchez
1.517 exibições
    • ½ Tom
    • A
    • Bb
    • B
    • C
    • Db
    • D
    • Eb
    • E
    • F
    • F#
    • G
    • Ab
  • Adicionar à lista

    0 comentários

    Mostrar mais comentários

    Conseguiu tocar?

    0 Tocaram 0 Ainda não

    Grave um vídeo tocando Motivo Pra Agradecer e mande pra gente!

    00:00 / 00:00
    outros vídeos desta música
    repetir qualidade Automático
    Outros vídeos desta música
    00:00 / 00:00
    Automático

    Cifra Club Pro

    Aproveite o Cifra Club com benefícios exclusivos e sem anúncios
    7 dias grátis
    Cifra Club Pro
    Aproveite o Cifra Club com benefícios exclusivos e sem anúncios
    7 dias grátis
    OK