O Cacto e o Balão

Lucas Lucco

Composição de: Lucas Lucco
tom: Db (forma dos acordes no tom de G ) Capotraste na 6ª casa
[Intro] Am  C  G  D  Am
        Am  C  G  D  Am

            Am      C       G          D
E|----------------------------------------------------|
B|-0h1-0-----0h1-0---0h1-0-0--0h1-0-------------------|
G|-----------------0----------------0h2---------------|
D|-------0h2------------------------------------------|
A|----------------------------------------------------|
E|----------------------------------------------------|

            Am      C       G          D             Am
E|--------------------------------------------------0-|
B|-0h1-0-----0h1-0---0h1-0-0--0h1-0-----------------1-|
G|-----------------0----------------0h2-0-----------2-|
D|-------0h2------------------------------4-5-0h2---2-|
A|--------------------------------------------------0-|
E|----------------------------------------------------|

                C
Mas quem diria né ?
                   G
Eu positivo, você negativo
          D             Am
A tal da Lei da Atração

                C
Mas quem diria né?
               G
Eu do dia e você da noite
           D          Am
Juntos perfeita união

              C           G
Você é água e eu sou óleo
                D         Am
Você é gelo eu sou vulcão
               C          G
Você é oito e sou oitenta
               D
Você é sim eu sou o não

       Am        C
Eu cacto você balão
        G                      D
Se abraçando sem medo da explosão

       Am        C
Eu cacto você balão
        G                      D
Se abraçando sem medo da explosão

       Am        C
Eu cacto você balão
        G                      D
Se abraçando sem medo da explosão

       Am        C
Eu cacto você balão
        G                      D
Se abraçando sem medo da explosão

            Am      C       G          D
E|----------------------------------------------------|
B|-0h1-0-----0h1-0---0h1-0-0--0h1-0-------------------|
G|-----------------0----------------0h2---------------|
D|-------0h2------------------------------------------|
A|----------------------------------------------------|
E|----------------------------------------------------|

            Am      C       G          D             Am
E|--------------------------------------------------0-|
B|-0h1-0-----0h1-0---0h1-0-0--0h1-0-----------------1-|
G|-----------------0----------------0h2-0-----------2-|
D|-------0h2------------------------------4-5-0h2---2-|
A|--------------------------------------------------0-|
E|----------------------------------------------------|

Am            C           G
Você é água e eu sou óleo
                D         Am
Você é gelo eu sou vulcão
               C          G
Você é oito e sou oitenta
               D
Você é sim eu sou o não

       Am        C
Eu cacto você balão
        G                      D
Se abraçando sem medo da explosão

       Am        C
Eu cacto você balão
        G                      D
Se abraçando sem medo da explosão

       Am        C
Eu cacto você balão
        G                      D
Se abraçando sem medo da explosão

       Am        C
Eu cacto você balão
        G                      D
Se abraçando sem medo da explosão

( Am  C  G  D )
( Am  C  G  D )

"Não é que deu certo?!
Eu cacto, você balão
E se eu tô com você
Eu não tenho medo,eu não tenho pressa
Tá tudo bem, tá tudo certo"

       Am        C
Eu cacto você balão
        G                      D
Se abraçando sem medo da explosão

       Am        C
Eu cacto você balão
        G                      D
Se abraçando sem medo da explosão

       Am        C
Eu cacto você balão
        G                      D
Se abraçando sem medo da explosão

       Am        C
Eu cacto você balão
        G                      D
Se abraçando sem medo da explosão

       Am        C
Eu cacto você balão
        G                      D
Se abraçando sem medo da explosão

       Am        C
Eu cacto você balão
        G                      D
Se abraçando sem medo da explosão
Página 1 / 1

Letras e título
Acordes e artista

resetar configurações
OK