Cifra Club

Aprenda

Encontrar Você

Lucas Marques

Cifra: Principal (violão e guitarra)
tom: G

Introdução:

E|-----------------------------------------------------------------------------------------------------|
B|-------3--------3--------------3--------3--------------1--------1--------------1------------3--------|
G|----0--------0-----0--------0--------0-----0--------0--------0-----0--------0------------0-----------|
D|-5--------5-----------5--4--------4-----------4--2--------2-----------2--2---------2--4--------4-----|
A|-----------------------------------------------------------------------------------------------------|
E|-----------------------------------------------------------------------------------------------------| 2X
 
Nunca é tarde pra recomeçar 

E|-----------------------------------------------------------------------------------------------------|
B|-------3--------3--------------3--------3--------------1--------1--------------1------------3--------|
G|----0--------0-----0--------0--------0-----0--------0--------0-----0--------0------------0-----------|
D|-5--------5-----------5--4--------4-----------4--2--------2-----------2--2---------2--4--------4-----|
A|-----------------------------------------------------------------------------------------------------|
E|-----------------------------------------------------------------------------------------------------|
 
De verdade demorei mas consegui te achar  

E|-----------------------------------------------------------------------------------------------------|
B|-------0--------0--------------3--------3--------------1--------1--------------1------------3--------|
G|----0--------0-----0--------0--------0-----0--------0--------0-----0--------0------------0-----------|
D|-2--------2-----------2--4--------4-----------4--2--------2-----------2--2---------2--4--------4-----|
A|-----------------------------------------------------------------------------------------------------|
E|-----------------------------------------------------------------------------------------------------|

Talvez o tempo estivesse a preparar  

E|-----------------------------------------------------------------------------------------------------|
B|-------3--------3--------------3--------3--------------1--------1--------------1------------3--------|
G|----0--------0-----0--------0--------0-----0--------0--------0-----0--------0------------0-----------|
D|-5--------5-----------5--4--------4-----------4--2--------2-----------2--2---------2--4--------4-----|
A|-----------------------------------------------------------------------------------------------------|
E|-----------------------------------------------------------------------------------------------------|

Uma outra chance, outra oportunidade pra um jovem casal se amar  

E|-----------------------------------------------------------------------------------------------------|
B|-------0--------0--------------3--------3--------------1--------1--------------1------------3--------|
G|----0--------0-----0--------0--------0-----0--------0--------0-----0--------0------------0-----------|
D|-2--------2-----------2--4--------4-----------4--2--------2-----------2--2---------2--4--------4-----|
A|-----------------------------------------------------------------------------------------------------|
E|-----------------------------------------------------------------------------------------------------|


G                   Em
Tudo na vida sempre tem um porquê
    C                  D
Até mesmo a razão de encontrar você 
     Bm                   Em
Pode até parecer que tudo não é verdade   
          Am                 D
Mas encontrei o caminho da felicidade
 C          D    G       D
Quando conheci você
    

G                   C
  Talvez tudo fosse difícil demais 
Em                  C            D
  O amor se achega e não te solta mais  
G                   C
  Ele chega e toma conta de tudo 
Em                     C                 D
  Sem que se perceba você se tornou meu mundo 
 
  
G                   Em
Tudo na vida sempre tem um porquê
    C                  D
Até mesmo a razão de encontrar você 
     Bm                   Em
Pode até parecer que tudo não é verdade   
          Am                 D
Mas encontrei o caminho da felicidade
 C          D    G       D
Quando conheci você



Solo Violino: G     Em     C     D     G     C     Em     C     D


G                   Em
Tudo na vida sempre tem um porquê
    C                  D
Até mesmo a razão de encontrar você 
     Bm                   Em
Pode até parecer que tudo não é verdade   
          Am                 D
Mas encontrei o caminho da felicidade


G                   Em
Tudo na vida sempre tem um porquê
    C                  D
Até mesmo a razão de encontrar você 
     Bm                   Em
Pode até parecer que tudo não é verdade   
          Am                 D
Mas encontrei o caminho da felicidade
 C          D    G     D/F#    Em
Quando conheci você


C            D    Bm     Em
Quando descobri você


Am          D          C     D     G     Em
Quando conheci você   


Am          D    G     C     G
Quando conheci você
Composição de Lucas Marques
Colaboração e revisão:
  • Lucas Marques
59 exibições
    • ½ Tom
    • A
    • Bb
    • B
    • C
    • Db
    • D
    • Eb
    • E
    • F
    • F#
    • G
    • Ab
  • Adicionar à lista

    0 comentários

    Ver todos os comentários

    Conseguiu tocar?

    0 Tocaram 0 Ainda não

    Grave um vídeo tocando Encontrar Você e nos envie!

    00:00 / 00:00
    outros vídeos desta música
    repetir qualidade Automático
    Outros vídeos desta música
    00:00 / 00:00
    Automático

    Cifra Club Pro

    Aproveite o Cifra Club com benefícios exclusivos e sem anúncios
    Cifra Club Pro
    Aproveite o Cifra Club com benefícios exclusivos e sem anúncios
    OK