Cifra Club

Aprenda

Estrela da Manhã

Lucas Souza

Cifra: Principal (violão e guitarra)
Já pensou em usar uma coleção de roupas do Cifra Club? Responda as perguntas abaixo e nos ajude nessa missão! →
tom: Eb
E|--------------------------------|
A|-6---6-6-6---6-6-6--6-6-6---6---|
D|--------------------------------|
G|--------------------------------|
B|--------------------------------|
E|--------------------------------|

  Intro: Eb  Gm  Ab  Bb (5X)
E|--------------------------------|
A|--------------------------------|
D|--------------------------------|
G|--------------------------------|
B|----11-11-11-8-8-8-9-9-9--8-8-8-|
E|--------------------------------|

E|--------------------------------|
A|--------------------------------|
D|--------------------------------|
G|-----------------------10-10-10-|
B|-11-11-11-8-8-8-9-9-9-----------|
E|--------------------------------|


Eb               Bb
  Eu procurei tua luz
E|-------------------------|
A|-------------------------|
D|-------------------------|
G|-------------------------|
B|-13-11-9-6-8~~~----------|
E|-------------------------|


Fm                 Bb
  Sabes o quanto vaguei
E|-------------------------|
A|-------------------------|
D|-------------------------|
G|-------------------------|
B|---------13-11--13-11~~--|
E|-11-10-------------------|


Eb                     Bb
  Quando encontrei o caminho, a tua alegria
     Fm                       Bb
Me encheu de canções, e pude seguir

Eb                 Bb
  Eu descobri que a cruz
E|-------------------------|
A|-------------------------|
D|-------------------------|
G|-------------------------|
B|-13-11-9-6-8~~~----------|
E|-------------------------|


Fm                      Bb
  É o que faz tua chama brilhar
E|-------------------------|
A|-------------------------|
D|-------------------------|
G|-------------------------|
B|---------13-11--13-11~~--|
E|-11-10-------------------|



Eb                Bb
  Lenho perene que aquece o fogo divino
 
  Fm                              Bb6
Sinaliza ao perdido o lugar onde te encontrar



Ab             Bb
   Estrela da manhã
              Ab
Tu brilhas como o sol
            Bb
Corróis a escuridão
            Eb   Gm   Ab   Bb
Jesus és meu farol


     Final (5X)
E|--------------------------|
A|--------------------------|
D|--------------------------|
G|--------------------------|
B|-11-11-11-9-9-9-8-8-8-9-9-|
E|--------------------------|

Composição de Lucas Souza
Colaboração e revisão:
113.312 exibições
    • ½ Tom
    • A
    • Bb
    • B
    • C
    • Db
    • D
    • Eb
    • E
    • F
    • F#
    • G
    • Ab
  • Adicionar à lista

    0 comentários

    Ver todos os comentários
    00:00 / 00:00
    Outros vídeos desta música
    Repetir Qualidade Automático
    Outros vídeos desta música
    00:00 / 00:00
    Automático

    Cifra Club Pro

    Aproveite o Cifra Club com benefícios exclusivos e sem anúncios
    Cifra Club Pro
    Aproveite o Cifra Club com benefícios exclusivos e sem anúncios
    OK