Cifra Club

Rock Frevo

Luciano Magno

Cifra: Principal (violão e guitarra)
tom: B
[Introdução]

E|-----------------------------------------------------|
B|-5--------5----------5----------5--------------------|
G|-5--------5----------5----------5--------5-----------|
D|----5--7-------5--7-------5--7-------5-7---7-5-------|
A|-----------------------------------------------7-----|
E|-----------------------------------------------------|

E|-----------------------------------------------------|
B|-7--------7----------7----------7--------------------|
G|-7--------7----------7----------7--------7-----------|
D|----7--9-------7--9-------7--9-------7-9---9-7-------|
A|-----------------------------------------------9-----|
E|-----------------------------------------------------|

E|-----------------------------------------------------|
B|-5--------5----------5----------5--------------------|
G|-5--------5----------5----------5--------5-----------|
D|----5--7-------5--7-------5--7-------5-7---7-5-------|
A|-----------------------------------------------7-3---|
E|-----------------------------------------------------|

E|-----------------------------------------------------|
B|------3--------3-----3----3----3---------------------|
G|------5--------5-----5----5----5---X--X--------------|
D|------4--------4-----4----4----4---X--X--------------|
A|-5----5--5--5--5--5--5----5----5---X--X--------------|
E|-----------------------------------------------------|

E|-----------------------------------------------------|
B|-5--------5----------5----------5--------------------|
G|-5--------5----------5----------5--------5-----------|
D|----5--7-------5--7-------5--7-------5-7---7-5-------|
A|-----------------------------------------------7-----|
E|-----------------------------------------------------|

E|-----------------------------------------------------|
B|-7--------7----------7----------7--------------------|
G|-7--------7----------7----------7--------7-----------|
D|----7--9-------7--9-------7--9-------7-9---9-7-------|
A|-----------------------------------------------9-----|
E|-----------------------------------------------------|

E|-----------------------------------------------------|
B|-5--------5----------5----------5--------------------|
G|-5--------5----------5----------5--------5-----------|
D|----5--7-------5--7-------5--7-------5-7---7-5-------|
A|-----------------------------------------------7-3---|
E|-----------------------------------------------------|

E|-----------------------------------------------------|
B|------3--------3-----3----3--------------------------|
G|------5--------5-----5----5--------------------------|
D|------4--------4-----4----4--------------------------|
A|-5----5--5--5--5--5--5----5--------------------------|
E|-----------------------------------------------------|


[Parte A]

E|-----------------------------------------------------|
B|------------------5----------------------------------|
G|-/7-6---------5h6---6---/4~--------------------------|
D|------7~----7---------7------------------------------|
A|-----------------------------------------------------|
E|-----------------------------------------------------|

E|-----------------------------------------------------|
B|-------3-----------------2-----/8--8p7---------------|
G|---2h4---4---2~------2h4---2-----------7--------7----|
D|-5---------5-------4---------4-----------9--7h9---9--|
A|-----------------------------------------------------|
E|-----------------------------------------------------|

E|-----------------------------------------------------|
B|-----------------------------------------------------|
G|-9h11-9-7------------------8h9-----------------------|
D|----------7----7h9--7------7------7--7---------------|
A|-------------9-----------0--------0--0---------------|
E|-----------------------------------------------------|

E|-----------------------------------------------------|
B|--------5--------------------------------------------|
G|----5h6---6---/4~------------------------------------|
D|--7---------7----------------------------------------|
A|-----------------------------------------------------|
E|-----------------------------------------------------|

E|-----------------------------------------------------|
B|-------3-----------------2-----/8--8p7---------------|
G|---2h4---4---/2~-----2h4---2-----------7--------7----|
D|-5---------5-------4---------4-----------9--7h9---9--|
A|-----------------------------------------------------|
E|-----------------------------------------------------|

E|-----------------------------------------------------|
B|-----------------------------------------------------|
G|-9h11-9-7------------------9-------------------------|
D|----------7----7h9--7------7-------------------------|
A|-------------9-----------0---------------------------|
E|-----------------------------------------------------|


[Parte B]

E|-----------------------------------------------------|
B|-----------------------------------------------------|
G|-------3-4-5-5/6~--4---------4-----/6--4---------4-/7|
D|-7-6-7---------------6-3~--6---6---------6-3---6-----|
A|-----------------------------------------------------|
E|-----------------------------------------------------|

E|---------------------------------9------9-12-10------|
B|---------------7-----7-10---7-10---7-10---------10---|
G|-----6-9-6-7-9---7-9------9------------------------11|
D|-7-9-------------------------------------------------|
A|-----------------------------------------------------|
E|-----------------------------------------------------|

E|-----------------------------------------------------|
B|-----------------------------------------------------|
G|-9---------------------------------------------------|
D|---12-11-12-9----------------------------------------|
A|--------------12-11~---------------------------------|
E|-----------------------------------------------------|

E|-----------------------------------------------------|
B|------------------------------------------12-------12|
G|-------------------11------11-13----11-13----11-13---|
D|------9-12----9-12----9-12-------12------------------|
A|-9h11------11----------------------------------------|
E|-----------------------------------------------------|

E|-14p12-----------------------------------------------|
B|-------15-14-12--------------------------------------|
G|----------------14-13-11-----------------------------|
D|-------------------------14-12-11~-------------------|
A|-----------------------------------------------------|
E|-----------------------------------------------------|

E|--------------------------------------------------7--|
B|-----------------------------------------9-12---9----|
G|-------------------------------9-13----9------9------|
D|-------------------11-14----11------11---------------|
A|-12-11-12-14-11-12-------12--------------------------|
E|-----------------------------------------------------|

E|-12-10-9---------------------------10----------------|
B|---------12-10-9------------11/12------11\10-8~------|
G|-----------------11-10-9~----------------------------|
D|-----------------------------------------------------|
A|-----------------------------------------------------|
E|-----------------------------------------------------|

E|---------------10------------------------------------|
B|----------/12------11\10-8~--------------------------|
G|-9p7---7----------------------9p7---6~---------------|
D|-----9----------------------------9------------------|
A|-----------------------------------------------------|
E|-----------------------------------------------------|

E|------------------------------9-12~--14--------------|
B|---------------------------10------------------------|
G|--------------9-11-11p9-11---------------------------|
D|-------7-9-11----------------------------------------|
A|-9p7-9-----------------------------------------------|
E|-----------------------------------------------------|

E|-8/9---------8--8p7-------------8--7h8p7------7--9b10|
B|------10------------10------10-------------8---------|
G|---------11------------10~---------------------------|
D|-----------------------------------------------------|
A|-----------------------------------------------------|
E|-----------------------------------------------------|

E|-9--7---7---------------7----------------------------|
B|-------10b12r----10b12----10-7-----------------------|
G|-------------------------------9-7-----9p7-----------|
D|-----------------------------------9-7------9~-------|
A|-----------------------------------------------------|
E|-----------------------------------------------------|

E|-----------------------------------------------------|
B|-----------------------------------------------------|
G|---4-6~--6p4----------4---6-5-4--------------4---/7--|
D|-7-----------6--3~--6---6-------7-6-4-3---6----------|
A|-----------------------------------------------------|
E|-----------------------------------------------------|

E|---------------------------------9------9-12-10------|
B|---------------7-----7-10---7-10---7-10---------10---|
G|-----6-9-6-7-9---7-9------9------------------------11|
D|-7-9-------------------------------------------------|
A|-----------------------------------------------------|
E|-----------------------------------------------------|

E|-----------------------------------------------------|
B|-----------------------------------------------------|
G|-9---------------------------------------------------|
D|---12-11-12-9----------------------------------------|
A|--------------12-11~---------------------------------|
E|-----------------------------------------------------|

E|-----------------------------------------------------|
B|------------------------------------------12-------12|
G|-------------------11------11-13----11-13----11-13---|
D|------9-12----9-12----9-12-------12------------------|
A|-9h11------11----------------------------------------|
E|-----------------------------------------------------|

E|-14p12-----------------------------------------------|
B|-------15-14-12--------------------------------------|
G|----------------14-13-11-----------------------------|
D|-------------------------14-12-11~-------------------|
A|-----------------------------------------------------|
E|-----------------------------------------------------|

E|--------------------------------------------------7--|
B|-----------------------------------------9-12---9----|
G|-------------------------------9-13----9------9------|
D|-------------------11-14----11------11---------------|
A|-12-11-12-14-11-12-------12--------------------------|
E|-----------------------------------------------------|

E|-12-10-9---------------------------10----------------|
B|---------12-10-9------------11/12------11\10-8~------|
G|-----------------11-10-9~----------------------------|
D|-----------------------------------------------------|
A|-----------------------------------------------------|
E|-----------------------------------------------------|

E|---------------10------------------------------------|
B|----------/12------11\10-8~--------------------------|
G|-9p7---7----------------------9p7---6~---------------|
D|-----9----------------------------9------------------|
A|-----------------------------------------------------|
E|-----------------------------------------------------|

E|------------------------------9-12~--14--------------|
B|---------------------------10------------------------|
G|--------------9-11-11p9-11---------------------------|
D|-------7-9-11----------------------------------------|
A|-9p7-9-----------------------------------------------|
E|-----------------------------------------------------|

E|-8/9---------8--8p7-------------8--7h8p7------7--9b10|
B|------10------------10------10-------------8---------|
G|---------11------------10~---------------------------|
D|-----------------------------------------------------|
A|-----------------------------------------------------|
E|-----------------------------------------------------|

E|-9--7---7----------7--------7-------7-------7--------|
B|-------10b12r~----10b12----10b12---10b12---10b12~r\--|
G|-----------------------------------------------------|
D|-----------------------------------------------------|
A|-----------------------------------------------------|
E|-----------------------------------------------------|

[Parte C]

E|-9-7-5-9-7-5-7--9-7-5-7-5----------------------------|
B|--------------------------7-5------------------------|
G|-----------------------------------------------------|
D|-----------------------------------------------------|
A|-----------------------------------------------------|
E|-----------------------------------------------------|

E|-9-7-5-9-7-5-7--5-7-5--------------------------------|
B|----------------------7-6-5--------------------------|
G|-----------------------------------------------------|
D|-----------------------------------------------------|
A|-----------------------------------------------------|
E|-----------------------------------------------------|

E|-7-5-3-7-5-3-5--7-5-3-5-3----------------------------|
B|--------------------------5-3------------------------|
G|-----------------------------------------------------|
D|-----------------------------------------------------|
A|-----------------------------------------------------|
E|-----------------------------------------------------|

E|-7-5-3-7-5-3-5--3-5-3--------------------------------|
B|----------------------5-4-3--------------------------|
G|-----------------------------------------------------|
D|-----------------------------------------------------|
A|-----------------------------------------------------|
E|-----------------------------------------------------|

E|-9-7-5-9-7-5-7--9-7-5-7-5----------------------------|
B|--------------------------7-5------------------------|
G|-----------------------------------------------------|
D|-----------------------------------------------------|
A|-----------------------------------------------------|
E|-----------------------------------------------------|

E|-9-7-5-9-7-5-7--5-7-5--------------------------------|
B|----------------------7-6-5--------------------------|
G|-----------------------------------------------------|
D|-----------------------------------------------------|
A|-----------------------------------------------------|
E|-----------------------------------------------------|

E|-7-5-3-7-5-3-5--7-5-3-5-3----------------------------|
B|--------------------------5-3------------------------|
G|-----------------------------------------------------|
D|-----------------------------------------------------|
A|-----------------------------------------------------|
E|-----------------------------------------------------|

E|-7-5-3-7-5-3-5--3-5-3--------------------------------|
B|----------------------5-4-3--------------------------|
G|----------------------------5\--2~-------------------|
D|-----------------------------------------------------|
A|-----------------------------------------------------|
E|-----------------------------------------------------|

E|-----------------------------------------------------|
B|--------------------------5b~\-----------------------|
G|-2---5---7b9---b9r7p5-----5b~\-----------------------|
D|----------------------7~-----------------------------|
A|-----------------------------------------------------|
E|-----------------------------------------------------|


[Final]

E|-9-7-5-9-7-5-7--9-7-5-7-5----------------------------|
B|--------------------------7-5------------------------|
G|-----------------------------------------------------|
D|-----------------------------------------------------|
A|-----------------------------------------------------|
E|-----------------------------------------------------|

E|-9-7-5-9-7-5-7--5-7-5--------------------------------|
B|----------------------7-6-5--------------------------|
G|-----------------------------------------------------|
D|-----------------------------------------------------|
A|-----------------------------------------------------|
E|-----------------------------------------------------|

E|-7-5-3-7-5-3-5--7-5-3-5-3----------------------------|
B|--------------------------5-3------------------------|
G|-----------------------------------------------------|
D|-----------------------------------------------------|
A|-----------------------------------------------------|
E|-----------------------------------------------------|

E|-7-5-3-7-5-3-5--3-5-3--------------------------------|
B|----------------------5-4-3--------------------------|
G|----------------------------5\--2~-------------------|
D|-----------------------------------------------------|
A|-----------------------------------------------------|
E|-----------------------------------------------------|

E|------------------------------12---------------------|
B|------------7--------8--10----12b14~-----------------|
G|----5-------7----7-9---------------------------------|
D|-5-------7-------------------------------------------|
A|-----------------------------------------------------|
E|-----------------------------------------------------|
Compositor não encontrado.
Colaboração e revisão:
  • Caroline Leroy
1.044 exibições
    • ½ Tom
    • A
    • Bb
    • B
    • C
    • Db
    • D
    • Eb
    • E
    • F
    • F#
    • G
    • Ab
  • Adicionar à lista

    0 comentários

    Ver todos os comentários

    Conseguiu tocar?

    0 Tocaram 0 Ainda não

    Grave um vídeo tocando Rock Frevo e nos envie!

    00:00 / 00:00
    Outros vídeos desta música
    Repetir Qualidade Automático
    Outros vídeos desta música
    00:00 / 00:00
    Automático
    Capítulos
    • Tocando a música
    • Apresentação / Equipamentos
    • Tocando Introdução
    • Ensinando Introdução - Tab 1
    • Ensinando Introdução - Tab 2
    • Ensinando Introdução - Tab 3
    • Ensinando Introdução - Tab 4
    • Ensinando Introdução - Tab 5
    • Ensinando Introdução - Tab 6
    • Ensinando Introdução - Tab 7
    • Ensinando Introdução - Tab 8
    • Dicas Parte A
    • Tocando Parte A
    • Ensinando Parte A - Tab 1
    • Ensinando Parte A - Tab 2
    • Ensinando Parte A - Tab 3
    • Ensinando Parte A - Tab 4
    • Ensinando Parte A - Tab 5
    • Ensinando Parte A - Tab 6
    • Aplicação da harmonia - Parte A
    • Dicas Parte B
    • Tocando Parte B
    • Ensinando Parte B - Tab 3
    • Ensinando Parte B - Tab 4
    • Ensinando Parte B - Tab 5
    • Ensinando Parte B - Tab 6
    • Ensinando Parte B - Tab 7
    • Ensinando Parte B - Tab 8
    • Ensinando Parte B - Tab 9
    • Ensinando Parte B - Tab 10
    • Ensinando Parte B - Tab 11
    • Ensinando Parte B - Tab 12
    • Ensinando Parte B - Tab 13
    • Ensinando Parte B - Tab 14
    • Ensinando Parte B - Tab 15
    • Ensinando Parte B - Tab 16
    • Ensinando Parte B - Tab 17
    • Ensinando Parte B - Tab 18
    • Ensinando Parte B - Tab 19
    • Ensinando Parte B - Tab 20
    • Ensinando Parte B - Tab 21
    • Ensinando Parte B - Tab 22
    • Aplicação da harmonia - Parte B
    • Dicas Parte C
    • Tocando Parte C (Refrão)
    • Ensinando Parte C - Tab 1
    • Ensinando Parte C - Tab 2
    • Ensinando Parte C - Tab 3
    • Ensinando Parte C - Tab 4
    • Ensinando Parte C - Tab 5
    • Ensinando Parte C - Tab 6
    • Ensinando Parte C - Tab 7
    • Ensinando Parte C - Tab
    • Ensinando Parte C - Tab
    • Aplicação da harmonia - Parte C
    • Trecho de improviso
    • Tocando Improviso
    • Dicas de improviso
    • Dicas finais
    • Tocando Final
    • Frase Final - Tab 1
    • Frase Final - Tab 2
    • Frase Final - Tab 3
    • Frase Final - Tab 4
    • Frase Final - Tab 5
    • Encerramento

    Cifra Club Pro

    Aproveite o Cifra Club com benefícios exclusivos e sem anúncios
    Cifra Club Pro
    Aproveite o Cifra Club com benefícios exclusivos e sem anúncios
    OK