Cifra Club

Fur Elise Intro

Ludwig Van Beethoven

Cifra: Principal (violão e guitarra)
Tom: C
enjoy!

e|--12-11-12-11-12----10-8----------5-7--------4-7-8-----|
B|-----------------12-----10-----1-5---------5-----------|
G|------------------------(2)---------(1)---------(2)----|
D|-----------------------(2)---------------------(2)-----|
A|----------------------(0)----------(2)--------(0)------|
E|----------------------------------(0)------------------|

e|--12-11-12-11-12----10-8----------5-7-------8--7--5-----|
B|-----------------12-----10-----1-5---------5------------|
G|------------------------(2)---------(1)-----------(2)---|
D|-----------------------(2)-----------------------(2)----|
A|----------------------(0)----------(2)----------(0)-----|
E|----------------------------------(0)-------------------|

e|--5--7-8-10-12--5-13-12-10--3-12-10-8--1-10-8-7--|

e|--0-12-0-12-12-24--|

I think this is good... let me know if you have any problems.  keep in mind that this is only the intro ;)
exibições 79.037
Acordes para:
    Colaboração e revisão:
    • joão barros

    0 comentários

    mostrar mais comentários

    Conseguiu tocar?

    19 tocaram 1 ainda não

    Grave um vídeo tocando Fur Elise Intro e mande pra gente!

    00:00 / 00:00
    outros vídeos desta música
    repetir qualidade Automático
    Outros vídeos desta música
    00:00 / 00:00
    Automático
    OK