Cifra Club

Aprenda

Fur Elise - Pro

Ludwig Van Beethoven

Cifra: Principal (violão e guitarra)
Quer fazer aulas de música com a gente? Responda essas perguntas
e nos ajude nesse projeto! →
tom: C
E|--0-----0----0--------------|
B|-----4-----4----0-3-1-------|
G|----------------------2-----|
D|----------------------------|
A|----------------------------|
E|----------------------------|

E|-------------------0-1------|
B|-----------------1----------|
G|-------2-4----2-------------|
D|-----2----------------------|
A|---3------------------------|
E|----------------------------|

E|--0-----0----0--------------|
B|-----4-----4----0-3-1-------|
G|----------------------2-----|
D|----------------------------|
A|----------------------------|
E|----------------------------|

E|-----------------1-0--------|
B|---------------------2------|
G|-------2-4----2-------------|
D|-----2----------------------|
A|---3------------------------|
E|----------------------------|

E|----------------------------|
B|-0-1-3-5----6-5-------------|
G|----------------------------|
D|---------5-------7----------|
A|----------------------------|
E|----------------------------|

E|----------------------------|
B|---5-3----------3-1-0-------|
G|----------------------------|
D|-3-----5-----2--------------|
A|----------------------------|
E|----------------------------|

Compositor não encontrado.
Colaboração e revisão:
  • sah1999
5.300 exibições
    • ½ Tom
    • A
    • Bb
    • B
    • C
    • Db
    • D
    • Eb
    • E
    • F
    • F#
    • G
    • Ab
  • Adicionar à lista

    0 comentários

    Ver todos os comentários

    Conseguiu tocar?

    2 Tocaram 0 Ainda não

    Grave um vídeo tocando Fur Elise - Pro e nos envie!

    00:00 / 00:00
    Outros vídeos desta música
    Repetir Qualidade Automático
    Outros vídeos desta música
    00:00 / 00:00
    Automático

    Cifra Club Pro

    Aproveite o Cifra Club com benefícios exclusivos e sem anúncios
    Cifra Club Pro
    Aproveite o Cifra Club com benefícios exclusivos e sem anúncios
    OK