Sonatina In F Woo50 - Allegro

Ludwig Van Beethoven

tom: C
(2/4)

E|--3-------3---3---|--3-2-0-----------|------------------|------------|
B|------------------|--------3-1-0-----|--------------0---|--3----1----|
G|------------------|--------------2-0-|------0---2-------|------------|
D|------0-------0---|------------------|--4-0---0---0---0-|------------|
A|----2---2---2---2-|------------------|--3---2---0-------|------------|
E|--3-------3-------|--3---------------|--------------3---|--2---------|

--5-------5---5---|--5-3-2-0---------|------------------|---------------|
------------------|----------3-1-0---|------------------|--0----3-0-3-0-|
------------------|----------------2-|--0-------0---2---|---------------|
------0-------0---|------------------|----0-4-0---0---0-|---------------|
----3---3---3---3-|------------------|--2---0---2-------|---------------|
--2-------2-------|--2---------------|--------------2---|--3------------|

------------------|----------3---3---|------------------|----------7---7---|
------------------|------------3---3-|--0-------1---0---|--1---0-----8---8-|
--0-------2---0-0-|--2---0-----------|------------------|------------------|
----0---0---0---0-|----0---0---------|----0---0---0---0-|----0---0---------|
--2---2---3---3---|--3---2-----------|----------0-------|--0---------------|
------------------|------------------|--3---3-------3---|------3-----------|

--0--0----0-2-3-|--5--5--7-5-3-2-|----0---0---0-2-3-|--7-5-7-5-7-5-3-2-|
--------4-------|----------------|--4---4---4-------|------------------|
----------------|----------------|------------------|------------------|
----------------|--0-------------|------------------|--0---------------|
--4-------------|----------------|--4---------------|------------------|
--3-------------|--2-------------|--3---------------|--2---------------|

(1.                                 (2.
--0--2-3-------|-----------0-1-2--||--0--2-3-------|-----------||
---------3--2--|--3--2-3-4--------||---------3--2--|--3--------||
---------------|-----------------*||---------------|-----------||
---------------|--0--------------*||---------------|--4--------||
---------0-----|------------------||---------0-----|--5--------||
-----3---------|------------------||-----3---------|-----------||
Página 1 / 1

Letras e título
Acordes e artista

resetar configurações
OK