Cifra Club

Nada Es Para Siempre

Luis Fonsi

Cifra: Principal (violão e guitarra)
exibições 23.798
Tom: G
E|----------------------------------------------------------------------------|
B|-----------------------------------1----1-----1---------------1------3------|
G|------------------------------------2----2----2----------------0------0-----|
D|------------------------------------2----2----2----------------2------4-----|     
A|--------------------------5----0-------------------0---2-3-----5------7-----|
E|------0----2-----3----------------------------------------------------------|

 Am
Nada es para siempre amor
         C       D            Em
Hoy nos toca compartir la misma luna
           Am
Y mañana quién sabrá 
       C        D           Em
Si hay una separación o habrá fortuna 
           Am        C       D               Em
Nadie sabe amor, nadie sabe qué podrá pasar mañana
               Am            C             D                 D
Quiero amarte hoy, quiero abrir todas las puertas de mi alma
  
           Am            C          D         Em
Te quiero hoy. Quiero abrirle al corazón una ventana
          Am             C         D            Em
Esto es amor, y es tan grande que no caben mis palabras
         Am                 C     D              Em
Quiero amarte hoy, quiero amarte hoy, por si no hay mañana
         Am                 C     D              Em
Quiero amarte hoy, quiero amarte hoy, por si no hay mañana
  
[Solo]  Am  C  D  Em
        Am  C  D  Em

E|---------------------------------------------------------------------------|
B|-----------------------------------1----1-----1---------------1------3-----|
G|------------------------------------2----2----2----------------0------0----| 
D|------------------------------------2----2----2----------------2------4----|
A|--------------------------5----0-------------------0---2-3-----5------7----| 
E|------0----2-----3---------------------------------------------------------|

             Am
Somos como arena y mar 
       C            D                 Em
Somos más que una ilución por que no hay duda
                 Am                 C          D          Em
Y esta historia de los dos, es tan linda como nunca hubo ninguna 
           Am           C        D           Em
Nadie sabe amor, nadie sabe qué podrá pasar mañana 
               Am            C             D          Em
Quiero amarte hoy, quiero abrir todas las puertas de mi alma
Acordes para:
    Composição: Amaury Gutiérrez Colaboração e revisão:
    • Lucas Kappaun
    • Daniel Nunes

    0 comentários

    mostrar mais comentários

    Conseguiu tocar?

    3 tocaram 0 ainda não

    Grave um vídeo tocando Nada Es Para Siempre e mande pra gente!

    00:00 / 00:00
    outros vídeos desta música
    repetir qualidade Automático
    Outros vídeos desta música
    00:00 / 00:00
    Automático
    OK