Cifra Club

Historia de un Amor

Luis Miguel

Cifra: Principal (violão e guitarra)
tom: C
E|----13-12-13-10-|----15-13-12-10-12----|----13-12-10---10----|---12-10----10-12-|
B|----------------|-------------------13-|-------------13---12-|---------13-------|
G|----------------|-12-------------------|-10------------------|-9----------------|
D|-12-------------|----------------------|---------------------|------------------|
A|----------------|----------------------|---------------------|------------------|
E|----------------|----------------------|---------------------|------------------|

E|----17-15-13-12-13-10-|----15-13-12-10-12----|----13-12-10----10----|------------|
B|----------------------|-------------------13-|-------------13----12-|---12-13----|
G|-14-------------------|-12-------------------|-10-------------------|-9-------14-|
D|----------------------|----------------------|----------------------|------------|
A|----------------------|----------------------|----------------------|------------|
E|----------------------|----------------------|----------------------|------------|

Esta es la manera que a mi me sale mas facil. Si tu guitarra lo permite puedes
transpornerla a otra posición donde te sea facil tocarla.

2.0 ESTROF S:
*************
ya no estas...                 Y en el alma...
E|-0-0-12-12-12-10-13-------10-|-0-0-10-10,-10-8-12-8-----------|
B|--------------------12-13----|----------------------10-12-13-|
G|-----------------------------|---------------------------------|

Y si ya no..        Por que dios...    Para hacerme...
E|-0-0-8-8-8-7-10-7-|------7-7-7-5-8-5-|-----5-5,-5-4-7-|
B|------------------|-8-10-------------|-6-8------------|
G|------------------|------------------|----------------|

Siempre fuiste...              Adorarte para...
E|-0-0-12-12-12-10-13-------10-|-0-0-10-10-10---12-------------|
B|--------------------12-13----|--------------13---13-10-12-13-|
G|-----------------------------|-------------------------------|

En tus besos...     El calor...        El amor y la pasión
E|-0-0-8-8-8-7-10-7-|------7-7-7-5-8-5-|-----5-4-8-7-5-|
B|------------------|-8-10-------------|-6-8-----------|
G|------------------|------------------|---------------|

Es la historia...       Como no..      Que me hizo...         Todo el bien...
E|-------------------10-|-10-8-7-7-5-4-|-------------------12-|-12-10-8-8-8-7-5-|
B|-13-12-10-12-13-10----|--------------|-15-13-12-13-15-12----|-----------------|
G|----------------------|--------------|----------------------|-----------------|

Que le dio luz...             Apagandola...
E|-12-10-8-10---12----13-10-|-10----------10----12-|
B|-----------------13-------|----13-12-13----12----|
G|--------------------------|----------------------|

Hay que vida...         Sin tu amor no vivire
E|-------------------10-|-10-------------------|
B|-13-12-10-12-13-10----|----13-12-10----------|
G|----------------------|-------------12-10-9--|

Siempre fuiste...              Adorarte para...
E|-0-0-12-12-12-10-13-------10-|-0-0-10-10,-10----12-------------|
B|--------------------12-13----|---------------13----13-10-12-13-|
G|-----------------------------|---------------------------------|

En tus besos...     El calor...        El amor y la pasión
E|-0-0-8-8-8-7-10-7-|------7-7-7-5-8-5-|-----5-4-8-7-5-|
B|------------------|-8-10-------------|-6-8-----------|
G|------------------|------------------|---------------|

Los acordes esta también en este servidor.

INTRO ALTERNATIVO
*****************
Esta si es una pichanga tocarla, y suena bien.

E|---1-0-1---|---3-1-0---0---|---1-0---------|---0-------0-|
B|---------3-|---------3---1-|-------3-1-3-0-|-----3-1-3---|
G|-----------|-0-------------|---------------|-------------|
D|-0---------|---------------|-3-------------|-2-----------|
A|-----------|---------------|---------------|-------------|
E|-----------|---------------|---------------|-------------|

E|---5-3-1-0-1---|--3-1-0---0---|---1-0---------|---------|
B|-------------3-|--------3---1-|-------3-1-3-0-|---0-1---|
G|-2-------------|-0------------|---------------|-------2-|
D|---------------|--------------|-3-------------|-2-------|
A|---------------|--------------|---------------|---------|
E|---------------|--------------|---------------|---------|
00:00 / 00:00
Outros vídeos desta música
Repetir
Outros vídeos desta música
Composição de Carlos Eleta Almarán
473 exibições
    • ½ Tom
    • A
    • Bb
    • B
    • C
    • Db
    • D
    • Eb
    • E
    • F
    • F#
    • G
    • Ab
  • Adicionar à lista

    0 comentários

    Ver todos os comentários

    Conseguiu tocar?

    0 Tocaram 0 Ainda não

    Grave um vídeo tocando Historia de un Amor e nos envie!

    Entre para oCifra Club PRO

    Tenha acesso a benefícios exclusivos no App e no Site

    • Chega de anúncios

    • Prioridade de compra em lançamentos

    • Mais recursos no app do Afinador

    • Atendimento Prioritário

    • Descontos nos produtos Cifra Club

    • Ajude a produzir mais conteúdo

    00:00 / 00:00

    Cifra Club Pro

    Aproveite o Cifra Club com benefícios exclusivos e sem anúncios
    Cifra Club Pro
    Aproveite o Cifra Club com benefícios exclusivos e sem anúncios
    OK