Cifra Club

A Música Mais Triste do Ano

Luiz Lins

Cifra: Principal (violão e guitarra)
exibições 186.006
Tom: Gm
[Intro]  Cm  F7  F4  F 
 Bb7M  Gm  Gm7 (x2)

E|---------------------------------------------------------|
B|--4----4-6-3-4----3-1--------4-3--3-------------------4--|
G|--5----------2-------3-2-----------5-3-2-----------------|
D|--5---------------------------------------5-4----5-------|
A|---------------------------------------------------------|
E|---------------------------------------------------------|x1

E|---------------------------------------------------------|
B|--4-6-3-4----3-1--------4-3--3-------------------4-------|
G|--------2-------3-2-----------5-3-2----------------------|
D|-------------------------------------5-4----5------------|
A|---------------------------------------------------------|
E|---------------------------------------------------------|toda música


Cm                                               F7
  Amor, quando nosso vinho amargar ou perder o sabor
                   F4                F           Bb7M
Quando a maquiagem borrar e as fotos perderem a cor
                                                            Gm
Tu ainda vai querer me aquecer quando não me restar nem calor?
                    Gm7
E quando o cigarro apagar vai ter valido a pena as cinzas e o 
       Cm
frescor?
                                                         F7
Quando a nossa música tocar, tu ainda vai lembrar do ritmo?
                        F4               F                    Bb7M
Quando o mundo me machucar, tu ainda vai querer curar minha dor?
                                               
                                              Gm
Tua voz e tua respiração são meus sons preferidos
                        Gm7
Mas quando eu esquecer de viver teu olhar ainda vai me lembrar quem 
      Cm
eu sou
                                                          F7
Ainda vai querer acordar com meu toque e minha voz no ouvido?
                          F4                  F                Bb7M
Tua vida ainda vai ter sentido se a nossa for tudo o que te sobrou?
                                                         Gm
Quando chegar o cansaço meu abraço ainda vai ser teu abrigo
                              Gm7
Mas quando a vida acabar ainda vai querer ir pro mesmo lugar onde 
       Cm
eu vou?

                                              F7
Ainda vai sorrir quando eu for teu único motivo? 
                         F4                   F
Ainda vai ouvir o que eu digo mesmo quando eu só quiser falar de 

 Bb7M
amor?
                                                          Gm
Ainda vai tentar me entender quando eu não fizer mais sentido
                                                          
               Gm7
E ficar comigo quando tiver visto o pior lado de quem eu sou?

(Cm  F7  F4  F  Bb7M  Gm  Gm7)x5
Acordes para:

    0 comentários

    mostrar mais comentários

    Conseguiu tocar?

    42 tocaram 14 ainda não

    Grave um vídeo tocando A Música Mais Triste do Ano e mande pra gente!

    00:00 / 00:00
    outros vídeos desta música
    repetir qualidade Automático
    Outro vídeos desta música
    00:00 / 00:00
    Automático
    OK