Cifra Club

Batendo Água

Luiz Marenco

Cifra: Principal
exibições 208.706
Tom: G
Intr.: G D7 Am D7 G

Solo: G Am D7 G

E|---7-7-----------------8-7----7-8-7----------------------------------10-10-8-7--||
B|-8-----10-8-8-10-8-7-8-----10-------10-8-7-------------------8-12-12------------||
G|-------------------------------------------9-7-------------7--------------------||
D|-----------------------------------------------10-9-7----9----------------------||
A|------------------------------------------------------10------------------------||
E|--------------------------------------------------------------------------------||

     G
Meu poncho emponcha lonjuras batendo água
    Am7                                D7
E as águas que eu trago nele eram pra mim

Asas de noite em meus ombros sobrando casa
 C                    D7               G
Longe das casa ombreada a barro e capim

E|-8-10-8-7-----------------------||
B|----------10-8-7----------------||
G|-----------------9-7------------||
D|---------------------10-9-7-----||
A|----------------------------10--||
E|--------------------------------||

Faz tempo que eu não emalo meu poncho inteiro
   Am7                                     D7
Nem abro as asas da noite pra um sol de abril

Faz muitos dias que eu venho bancando o tino
      C              D7                G
Das quatro patas do zaino pechando o frio

E|---------------------||
B|---------------------||
G|--------------2-3-4--||
D|------2-3-4-5--------||
A|--3-5----------------||
E|---------------------||

(Troca um compasso de orelhas a cada pisada
                                        D7
No mesmo tranco da várzea que se encharcou
Am7                Bm       C            D7     |Bis
Topa nas abas sombreras, que em outros ventos
                         C        D7         G
Guentaram as chuvas de agosto que Deus mandou)

G D7 Am D7 G Am D7 G

E|---7-7-----------------8-7----7-8-7----------------------------------10-10-8-7--||
B|-8-----10-8-8-10-8-7-8-----10-------10-8-7-------------------8-12-12------------||
G|-------------------------------------------9-7-------------7--------------------||
D|-----------------------------------------------10-9-7----9----------------------||
A|------------------------------------------------------10------------------------||
E|--------------------------------------------------------------------------------||

Meu zaino garrou da noite o céu escuro
  Am7                                 D7
E tudo o que a noite escuta é seu clarim

De patas batendo n'água depois da várzea
  C                   D7              G
Freio e rosetas de esporas no mesmo trim

E|-8-10-8-7-----------------------||
B|----------10-8-7----------------||
G|-----------------9-7------------||
D|---------------------10-9-7-----||
A|----------------------------10--||
E|--------------------------------||

Falta distância de pago e sobra cavalo
   Am7                               D7
Na mesma ronda de campo que o céu deságua

Que tem um rumo de rancho pras quatro pata
 C                    D7          G
Bota seu mundo na estrada batendo água

E|---------------------||
B|---------------------||
G|--------------2-3-4--||
D|------2-3-4-5--------||
A|--3-5----------------||
E|---------------------||

(Porque se a estrada me cobra, pago seu preço
                                    D7
E desabrigo o caminho pra o meu sustento
Am7                 Bm     C        D7           Bis
Mesmo que o mundo desabe num tempo feio
                      C     D7           G
Sei o que as asas do poncho trazem por dentro)

D7 C Bm Am G

E|-8-7--------------------------||
B|-----10-8-7-------------------||
G|------------9-7-9-7-----------||
D|--------------------10-9-7----||
A|---------------------------10-||
E|------------------------------||
Acordes para:
    Colaboração e revisão:

    0 comentários

      mostrar mais comentários

      Conseguiu tocar?

      19tocaram0ainda não

      Grave um vídeo tocando Batendo Água e mande pra gente!

      00:00 / 00:00
      outros vídeos desta música
      repetirqualidadeautomática
      Outro vídeos desta música
        00:00 / 00:00
        automática
        OK