Meus Amores

Luiz Marenco

Composição de: Jayme Caetano Braun / Luiz Marenco
tom: G
[Intro] G7  C  Bm  E7  Am  D7  G9

E|----------------------12-12-10-10-------------10-10---------------------------------------------------|
B|-------------10-12-13-------------13-13-12-12-------13-13-12-12-10-10---13-13-12-12-10----12----------|
G|-12-12-12-12---------------------------------------------------------------------------12----12-11-10-|
D|------------------------------------------------------------------------------------------------------|
A|------------------------------------------------------------------------------------------------------|
E|------------------------------------------------------------------------------------------------------|

E|----------------------12-12-10-10-------------10-10---------------------------------------------------|
B|-------------10-12-13-------------13-13-12-12-------13-13-12-12-10-10---13-13-12-12-10-10-------------|
G|-12-12-12-12-------------------------------------------------------------------------------12---------|
D|------------------------------------------------------------------------------------------------------|
A|------------------------------------------------------------------------------------------------------|
E|------------------------------------------------------------------------------------------------------|

G9                     D9/F#     Dm7/F              C9           
Entre os amores que eu tenho o pingo, a china e o pago
C7M/G                D7                       G9
E essa guitarra que trago das origens de onde venho                      
                 D9/F#  Dm7/F              C9
E o poncho todo cigano que balanceia nas ancas
C7M/G           D7                     G9    G7   (G#°)
O pingo gateado ruano malacara, patas brancas

                     C/G                           Bm
No rancho sobre a coxilha contemplando a várzea infinda
  E/G#                Am            D7      Dm        G7   (G#°)
Tenho a xirua mais linda do que a flor da maçanilha
                      C/G                   Bm
Deixa que a lua se estenda e o mundo fica pequeno
E/G#              Am       D7/F#               G     G7
Enquanto bebo o sereno nos lábios da minha prenda


( G7  C  Bm  E7  Am  D7  G9  G7  C  Bm  E7  Am  D7  G9 )

G9              D9/F#     Dm7/F              C9
Nessa tropeada reiúna a camba do freio é um norte
C7M/G                 D7                       G9
E apenas bendigo a sorte que me deu tanta fortuna
G9            D9/F#     Dm7/F              C9
É a sina dos cruzadores andar caminhos sem fim
C7M/G               D7                    G9   G7    (G#°)
Sou dono dos meus amores só tu é dona de mim

                     C/G                           Bm
No rancho sobre a coxilha contemplando a várzea infinda
  E/G#                Am            D7      Dm        G7   (G#°)
Tenho a xirua mais linda do que a flor da maçanilha
                      C/G                   Bm
Deixa que a lua se estenda e o mundo fica pequeno
E/G#              Am       D7/F#               G     G7
Enquanto bebo o sereno nos lábios da minha prenda


( G7  C  Bm  E7  Am  D7  G9 )
Página 1 / 1

Letras e título
Acordes e artista

resetar configurações
OK