Cifra Club

Aprenda

Onde Andará

Luiz Marenco

Cifra: Principal (violão e guitarra)
tom: F
[Intro]

   C7M                                                                           Dm7
E|-0-------0---1-------1-----3-----------3-------------0-------1-------3---------------------5-----------|
B|-0-------0---0-------0-----0-------0-------0---------0-------0-------0---------6-------6-------6-------|
G|-0---0-----------0-------------0---------------0---------0-------0-------0-----5---5---------------5---|
D|-------------------------------------------------------------------------------0-----------------------|
A|-3-----------3-------------3-------------------------3-------3-------3---------------------------------|
E|-------------------------------------------------------------------------------------------------------|

                                                       G4(7)       G7(13)        C7M
E|---------------------------5-----------5---------------------------------0-----------------0-----------|
B|-6-------6---8-------8-----6-------6-------6---------1-------1---0-------0-------------0-------0-------|
G|-5---5-------5---5---------5---5---------------5-----0---0-------0---0-------------0---------------0---|
D|-0-----------0-------------0-------------------------3-----------3-------------------------------------|
A|-------------------------------------------------------------------------------3-----------------------|
E|-----------------------------------------------------3-----------3-------------------------------------|

                            Em7(b5)                                        Dm7
E|----------------0---1-----3--------3-------------6-----------6-3/5---3-----1-----------1-----------|
B|-----0----1--3------------3----3-------3---------5-------5-------------------------1-------1-------|
G|--------------------------3----------------------6---6-------------------------2-------------------|
D|--------------------------2----------------0-----5-------------------------0-------------------0---|
A|---------------------------------------------------------------------------------------------------|
E|---------------------------------------------------------------------------------------------------|

   Dm7/C                     Em/B                      D2               F7M
E|-------------1-------------------------0------------------0-----------0--------0-----------|
B|---------1-------1-----------------0-------0---1-----3---------3------1------------1-------|
G|-----2-------------------------0--------------------------------------2----2-----------2---|
D|-----------------------------------------------------0----------------3--------------------|
A|-3-------------------3-----2---------------2---3-------------------------------------------|
E|-------------------------------------------------------------------------------------------|

   E9-/F                  C9
E|-0--------0-------------------------0-------------3------|
B|-0------------0-----------------3-------3---------3------|
G|-1----1-----------1---------0---------------0-----0------|
D|-3------------------------------------------------2------|
A|------------------------3-------------------------3------|
E|---------------------------------------------------------|

( C  Am  D7  G7 )
( F  F#º  G7 )
( Fm  C  G7(13-) )
 
C 
Onde andará a silhueta desses antigos campeiros
Dm7
Que desenhavam saudades na fumaça dos palheiros
Em     Ebm7    Dm7     G7                  C     G7(13-)
E madrugavam setembros na voz clara dos braseiros 

C
Onde andará a mañanita dos mates de gosto bueno
Dm7
Da encilha dos gateados contraponteando o sereno
Em       Ebm7     Dm7     G7                 C    Dm7  G7  C
E a humildade dos ranchos guardando sonhos morenos

       G7           C                      Dm7
Onde andará o verso claro ponteado numa canção
                       G7   E7                  Am 
Que se espalhava em floreios pelas tardes do galpão
Fm    Bb       Eb    G7                    C
E matizavam campeiros ao som de gaita e violão

( C  G7  C  G7 )

E|--------------------------------5--3--1--0----------------------------|
B|--------------------------------------------3--1--0-------------------|
G|-------------------0---1----2------------------------2--0------2------|
D|---------0---2--3------------------------------------------3----------|
A|-----3----------------------------------------------------------------|
E|----------------------------------------------------------------------|

( F  C  Am  Dm7 )
( G7  C  G7(13-) )

C
Onde andará a tarde longa das ressolanas campeiras
Dm7
Onde a alma desses tantos cruzava além da porteira
Em          Ebm7     Dm7   G7                    C     G7(13-)
Pra o mundo das invernadas por não saber das fronteiras

C
Por onde andará o semblante de um avô maragato
Dm7
Que eternizou seu silêncio na moldura de um retrato
Em         Ebm7     Dm7   G7                  C   Dm7  G7  C
E dos seus causos antigos desses campeiros de fato

     G7            C                     Dm7
Quem sabe andam perdidas na saudade dos avós
                    G7   E7                  Am 
Ou presas dentro do peito querendo saltar na voz
Fm      Bb            Eb   G7                   C
Mas bem certo elas se acham guardadas dentro de nós

Fm           F#º        G7         C  Ab  G7  C7M
Onde andará, onde andará dentro de nós
Composição de Fabiano Bacchieri / Gujo Teixeira / Joca Martins
Colaboração e revisão:
  • Angelo Paz
28.381 exibições
    • ½ Tom
    • A
    • Bb
    • B
    • C
    • Db
    • D
    • Eb
    • E
    • F
    • F#
    • G
    • Ab
  • Adicionar à lista

    0 comentários

    Ver todos os comentários
    00:00 / 00:00
    Outros vídeos desta música
    Repetir Qualidade Automático
    Outros vídeos desta música
    00:00 / 00:00
    Automático

    Cifra Club Pro

    Aproveite o Cifra Club com benefícios exclusivos e sem anúncios
    Cifra Club Pro
    Aproveite o Cifra Club com benefícios exclusivos e sem anúncios
    OK