Cifra Club

Assim Caminha a Humanidade

Lulu Santos

Cifra: Principal
exibições 482.620
Tom: A
 [Intro]  D

E|----------------------------------------|
B|----------------------------------------|
G|----------------------------------------|
D|---------------------------------4------|
A|-(5)-(5)---(5)-(5)---(5)-(5)--7---------|
E|---------5---------5--------5-----------|

D                         D7+
Ainda vai levar um tempo
               B            Em
Pra fechar o que feriu por dentro
                    Gm
Natural que seja assim
                        D
Tanto pra você quanto pra mim

             D        D7+
Ainda leva uma cara
                 B
Pra gente poder dar risada
Em                       Gm
Assim caminha a humanidade
                                D
Com passos de formiga e sem vontade
     B                 Em
Não vou dizer que foi ruim
    Gm                    D
Também não foi tão bom assim
    B                Em
Não imagine que te quero mal
Gm                   D
Apenas não te quero mais

E|----------------------------------------|
B|----------------------------------------|
G|----------------------------------------|
D|--------------------------------4-------|
A|-(5)-(5)---(5)-(5)---(5)-(5)--7---------|
E|---------5---------5--------5-----------|

D                     D7+
  Ainda leva uma cara
                 B
Pra gente poder dar risada
Em                       Gm
  Assim caminha a humanidade
                                D
Com passos de formiga e sem vontade
     B                 Em
Não vou dizer que foi ruim
    Gm                    D
Também não foi tão bom assim
    B                Em
Não imagine que te quero mal
Gm                   D
Apenas não te quero mais

              D5+
Não te quero mais
     D6  D5+     D
Não mais, yeeeeaaahh

              D5+
Não te quero mais
     Gm          D
Não mais, nunca mais

0 comentários

    mostrar mais comentários

    Conseguiu tocar?

    39tocaram2ainda não

    Grave um vídeo tocando Assim Caminha a Humanidade e mande pra gente!

    00:00 / 00:00
    outros vídeos desta música
    repetirqualidadeautomática
    Outro vídeos desta música
      00:00 / 00:00
      automática
      OK