Cifra Club

Toda Forma de Amor

Lulu Santos

Cifra: Principal (violão e guitarra)
exibições 1.082.131
Tom: Em
* A corda A deve ser afinada em G

Intro: G5  Em  D5(9)  C5

   G5
E|-----------------------------------------|
B|-2-2-2-2--2-2-2-2--2-2-2-2---2-2-----2-2-|
G|-0-0-0-0--0h2-0-0--0-0-0-2h4-2-0h2p0-0-0-|  (2x)
D|-0-2-0-0--0-0-0-0--0-2-0-0---0-------2-0-|
G|-0-0-0-0--0-0-0-0--0-0-0-0---0-------0-0-|
E|-----------------------------------------|

   G5
E|-----------------------------------------|
B|-2-2-2-2--2-2-2-2--2-2-2-2---2-2-2-2-----|
G|-0-0-0-0--0h2-0-0--0-0-0-2h4-2-0-0-0-----|
D|-0-2-0-0--0-0-0-0--0-2-0-0---0-0-2-0-----|
G|-0-0-0-0--0-0-0-0--0-0-0-0---0-0-0-0-----|
E|-----------------------------------------|

   Em
E|-----------------------------------------|
B|-----------------------------------------|
G|-0-0-0-0--0h2-0-0--0-0-0-2h4-2-0-0-0-----|
D|-0-2-0-0--0-0-0-0--0-2-0-0---0-0-2-0-----|
G|-4-4-4-4--4-4-4-4--4-4-4-4---4-4-4-4-----|
E|-0-0-0-0--0-0-0-0--0-0-0-0---0-0-0-0-----|

   D5(9)
E|-----------------------------------------|
B|-2-2-2-2--2-2-2-2--2-2-2-2---2-2-2-2-----|
G|-0-0-0-0--0h2-0-0--0-0-0-2h4-2-0-0-0-----|
D|-0-2-0-0--0-0-0-0--0-2-0-0---0-0-2-0-----|
G|-----------------------------------------|
E|-----------------------------------------|

   C5
E|-----------------------------------------|
B|----------------------------------3------|
G|--5-5-5--4-4-4--2-2-2--4-4-4--5-5-5------|
D|--5-5-5--5-5-5--5-5-5--5-5-5--5-5-5------|
G|--5-5-5--5-5-5--5-5-5--5-5-5--5-5-5------|
E|-----------------------------------------|

G5
 Eu não pedi pra nascer
Em                      Em7
   Eu não nasci pra perder
D                              C5
 Nem vou sobrar de vítima das circunstâncias

G5
 Eu tô plugado na vida
Em                       Em7
   Eu tô curando a ferida
D                          C5             (Intro)
 Às vezes eu me sinto uma bala perdida

G5
 Você é bem como eu
Em                        Em7
   Conhece o que é ser assim
D                               C5
 Só que dessa história ninguém sabe o fim

G5
 Você não leva pra casa
Em                   Em7
   E só traz o que quer
D                          C5
 Eu sou teu homem, você é minha mulher

G5
 E a gente vive junto
G5+
   E a gente se dá bem
        C
Não desejamos mal
    Cm       D5(9)
A quase ninguém

G5
 E a gente vai à luta
G5+
   E conhece a dor
       C
Consideramos justa

 Cm   D5(9)
Toda forma de amor
Acordes para:
    Composição: Lulu Santos Colaboração e revisão:
    • Caroline Leroy
    • Matheus Santos
    • Weverton

    0 comentários

    mostrar mais comentários

    Conseguiu tocar?

    43 tocaram 0 ainda não

    Grave um vídeo tocando Toda Forma de Amor e mande pra gente!

    00:00 / 00:00
    outros vídeos desta música
    repetir qualidade Automático
    Outro vídeos desta música
    00:00 / 00:00
    Automático
    Capítulos
    • Início
    • Afinação
    • Tocando a música
    • Acordes Introdução e Primeira Parte
    • Tocando Introdução
    • Ensinando Introdução
    • Acordes das Estrofes
    • Tocando Primeira Estrofe
    • Ensinando Estrofes
    • Acordes do Refrão
    • Tocando Refrão
    • Ensinando Ritmo do Refrão
    • Encerramento
    OK