Notificações Amigos pendentes

      Lulu Santos

      Um pro Outro

      120.439 exibições
      Tom: F
      Intro:
      
      Base pro solo: F  G7(9)  Dm  G7
                     F  G7(9)  C
      
      
      adaptado (uma 8ª abaixo) para o Violão
      
      E|-----------------------------------------------------------------|
      A|-----------------------------------------------------------------|
      D|-----------------------------------------------------------------|
      G|----2--0--2-------------------------------------2---5/slide|------|
      B|-------------1-3-5-------3-6--------3-1-3---1-3-----5/slide|------|
      E|-------------------5---3-----0--1-0-------0----------------------|
      
      
      
      OUTRA adaptação (uma 8ª abaixo) para o Violão
      
      E|--------------------------------------------------------------|
      A|--------------------------------------------------------------|
      D|-----------------------------5----------------------3---------|
      G|----2p0h2----------4---------5-------7-5-7----------2---------|
      B|-----------1h3-----3-----3-6-5---6p5-----------1h3--1---------|
      E|----------------0--5---3---------------------0------1---------|
      
      
      
      
      
      ORIGINAL com slide (8ª acima)
      
      E|-------------------------------------------------------------------------------|
      A|-------------------------------------------------------------------------------|
      D|-------------------------------------------------------------------------------|
      G|----14/12\14-------------------------------------------------------------17\---|
      B|--------------13/15/17--------15--18\17---18\17-15\13\15-----13\15-------17\---|
      E|-----------------------17---15---------------------------12--------14----------|
      
      
      
      Riff 1
      
      E|---------------3-1-----------------------|
      A|-------5-3-1-0---------------------------|
      D|-5-3-2-----------------------------------|
      G|-----------------------------------------|
      B|-----------------------------------------|
      E|-----------------------------------------|
      
      
      F            G9             C
        Foi bom te ver de novo aqui  (Riff1)
        F        G9         C               F
        A gente tinha mesmo tanta razão pra seguir
               Dm            Bb           D/F#             Gm7        C  (Riff1)
        Fora o som dessa guitarra a voz sempre rouca e o coração na mão
      F            G9           C    (Riff1)
        Surpresa certa te encontrar
      F      G9        C                      F
      a tua onda pega bem mesmo em qualquer lugar
                  Dm        Bb          D/F#        Gm7        C
        Até na esquina do pecado o que for da vida não nos deterá
      Bb            C             Dm  C        Bb  Gm7            A7           Dm
        Nós somos feitos um pro outro, pode crer por isso é que eu estou aqui
      Bb             C        Dm C     Bb    Gm7      A7        Dm
        E não há lógica que faça desandar o que o acaso decidir
              
      Base pro solo: F  G7(9)  Dm  G7
                     F  G7(9)  C
      
      
      E|-----------------------------------------------------------------|
      A|-----------------3p5----3----------------------------------------|
      D|-------------3-5-----------3--6h5h6------------------------------|
      G|----5--5--5------------------------------------5-----------------|
      B|-----------------------------------------6-5-3---3-5--1p2p3------|
      E|-----------------------------------------------------------------|
      
      
      E|-----------------------------------------------------------------|
      A|-----------------3p5----3----------------------------------------|
      D|-------------3-5-----------3--6h5h6------------------------------|
      G|----5--5--5------------------------------------------------------|
      B|-----------------------------------------------------------------|
      E|-----------------------------------------------------------------|
      
      
      Riff 1
      
      E|---------------3-1-----------------------|
      A|-------5-3-1-0---------------------------|
      D|-5-3-2-----------------------------------|
      G|-----------------------------------------|
      B|-----------------------------------------|
      E|-----------------------------------------|
      
      
      
      F           G9        C (Riff1)  F        G9          C               F
        Tanta certeza no olhar,       tamanha pressa de chegar a nenhum lugar
                Dm         Bb           D/F#         Gm7             C
        Só pra ter a sensação de que a vida passa assim como um tufão
      Bb            C             Dm  C        Bb  Gm7            A7          Dm
        Nós somos feitos um pro outro, pode crer por isso é que eu estou aqui
      Bb           C         Dm C       Bb  Gm7      A7        Dm
        E não há lógica que faça desandar o que o acaso decidir
      
      
      Base pro solo: F  G7(9)  Dm  G7
                     F  G7(9)  C
      
      
      E|-----------------------------------------------------------------|
      A|-----------------3p5----3----------------------------------------|
      D|-------------3-5-----------3--6h5h6------------------------------|
      G|----5--5--5------------------------------------5-----------------|
      B|-----------------------------------------6-5-3---3-5--1p2p3------|
      E|-----------------------------------------------------------------|
      
      
      E|-----------------------------------------------------------------|
      A|-----------------3p5----3----------------------------------------|
      D|-------------3-5-----------3--6h5h6------------------------------|
      G|----5--5--5------------------------------------------------------|
      B|-----------------------------------------------------------------|
      E|-----------------------------------------------------------------|
      
      
      Riff 1
      
      E|---------------3-1-----------------------|
      A|-------5-3-1-0---------------------------|
      D|-5-3-2-----------------------------------|
      G|-----------------------------------------|
      B|-----------------------------------------|
      E|-----------------------------------------|
      
        Composição: Lulu SantosColaboração e revisão:
        • Rodrigo
        • Villy
        • VLADI DU KAVAKO ...........®

        Comentários 5

        140 .
        • Luccas Luccas: Em 07/11/2015 02:08

          a tablatura está de invertida..., mas está correta

        • luizfelipe.rodriguesmaciel luizfelipe.rodriguesmaciel: Em 28/06/2014 22:24

          mas falta a tabla.. da musica, mas ele faz com a guitarra ñ com violão.

        • alanandrade alanandrade: Em 30/10/2013 21:42

          Se pintar melhor, passa o link!

        • alanandrade alanandrade: Em 30/10/2013 21:41

          De vagar a cifra!!!

        • delermando delermando: Em 29/10/2012 10:42

          onde está a TAB da intro?

        140 cancelar

        conseguiu tocar?

        covers

        Grave um vídeo tocando Um pro Outro e mande pra gente!

        Ex.: http://www.youtube.com/watch?v=0IvSvIwGdwk
        ver covers de outras músicas »
        0:00 / 0:00

        Capítulos

          1 versão de violão dificuldade exibições contribuição e correção
          1 versão de guitarra dificuldade exibições contribuição e correção
          1 versão de cavaco dificuldade exibições contribuição e correção
          1 versão de teclado dificuldade exibições contribuição e correção
          play/pausefechar subir/descer velocidade
          6ª corda E5ª corda A4ª corda D3ª corda G2ª corda B1ª corda E
            acordes
            publicidade
            fechar
            ok