Enviar cifraEntrar

Um pro Outro

Lulu Santos

Cifra: Principal
exibições 123.369
Tom: F
Intro:

Base pro solo: F  G7(9)  Dm  G7
               F  G7(9)  C


adaptado (uma 8ª abaixo) para o Violão

E|-------------------5---3-----0--1-0-------0----------------------|
B|-------------1-3-5-------3-6--------3-1-3---1-3-----5/slide|------|
G|----2--0--2-------------------------------------2---5/slide|------|
D|-----------------------------------------------------------------|
A|-----------------------------------------------------------------|
E|-----------------------------------------------------------------|



OUTRA adaptação (uma 8ª abaixo) para o Violão

E|----------------0--5---3---------------------0------1---------|
B|-----------1h3-----3-----3-6-5---6p5-----------1h3--1---------|
G|----2p0h2----------4---------5-------7-5-7----------2---------|
D|-----------------------------5----------------------3---------|
A|--------------------------------------------------------------|
E|--------------------------------------------------------------|





ORIGINAL com slide (8ª acima)

E|-----------------------17---15---------------------------12--------14----------|
B|--------------13/15/17--------15--18\17---18\17-15\13\15-----13\15-------17\---|
G|----14/12\14-------------------------------------------------------------17\---|
D|-------------------------------------------------------------------------------|
A|-------------------------------------------------------------------------------|
E|-------------------------------------------------------------------------------|



Riff 1

E|-----------------------------------------|
B|-----------------------------------------|
G|-----------------------------------------|
D|-5-3-2-----------------------------------|
A|-------5-3-1-0---------------------------|
E|---------------3-1-----------------------|


F            G9             C
  Foi bom te ver de novo aqui  (Riff1)
  F        G9         C               F
  A gente tinha mesmo tanta razão pra seguir
         Dm            Bb           D/F#             Gm7        C  (Riff1)
  Fora o som dessa guitarra a voz sempre rouca e o coração na mão
F            G9           C    (Riff1)
  Surpresa certa te encontrar
F      G9        C                      F
a tua onda pega bem mesmo em qualquer lugar
            Dm        Bb          D/F#        Gm7        C
  Até na esquina do pecado o que for da vida não nos deterá
Bb            C             Dm  C        Bb  Gm7            A7           Dm
  Nós somos feitos um pro outro, pode crer por isso é que eu estou aqui
Bb             C        Dm C     Bb    Gm7      A7        Dm
  E não há lógica que faça desandar o que o acaso decidir
        
Base pro solo: F  G7(9)  Dm  G7
               F  G7(9)  C


E|-----------------------------------------------------------------|
B|-----------------------------------------6-5-3---3-5--1p2p3------|
G|----5--5--5------------------------------------5-----------------|
D|-------------3-5-----------3--6h5h6------------------------------|
A|-----------------3p5----3----------------------------------------|
E|-----------------------------------------------------------------|


E|-----------------------------------------------------------------|
B|-----------------------------------------------------------------|
G|----5--5--5------------------------------------------------------|
D|-------------3-5-----------3--6h5h6------------------------------|
A|-----------------3p5----3----------------------------------------|
E|-----------------------------------------------------------------|


Riff 1

E|-----------------------------------------|
B|-----------------------------------------|
G|-----------------------------------------|
D|-5-3-2-----------------------------------|
A|-------5-3-1-0---------------------------|
E|---------------3-1-----------------------|



F           G9        C (Riff1)  F        G9          C               F
  Tanta certeza no olhar,       tamanha pressa de chegar a nenhum lugar
          Dm         Bb           D/F#         Gm7             C
  Só pra ter a sensação de que a vida passa assim como um tufão
Bb            C             Dm  C        Bb  Gm7            A7          Dm
  Nós somos feitos um pro outro, pode crer por isso é que eu estou aqui
Bb           C         Dm C       Bb  Gm7      A7        Dm
  E não há lógica que faça desandar o que o acaso decidir


Base pro solo: F  G7(9)  Dm  G7
               F  G7(9)  C


E|-----------------------------------------------------------------|
B|-----------------------------------------6-5-3---3-5--1p2p3------|
G|----5--5--5------------------------------------5-----------------|
D|-------------3-5-----------3--6h5h6------------------------------|
A|-----------------3p5----3----------------------------------------|
E|-----------------------------------------------------------------|


E|-----------------------------------------------------------------|
B|-----------------------------------------------------------------|
G|----5--5--5------------------------------------------------------|
D|-------------3-5-----------3--6h5h6------------------------------|
A|-----------------3p5----3----------------------------------------|
E|-----------------------------------------------------------------|


Riff 1


E|-----------------------------------------|
B|-----------------------------------------|
G|-----------------------------------------|
D|-5-3-2-----------------------------------|
A|-------5-3-1-0---------------------------|
E|---------------3-1-----------------------|
  • 1
  • 2
  • 3
  • 4
  • 5
  • 6
  • 7
  • 8
  • 9
  • 10
  • 11
  • 12
    Acordes para:
      Composição: Lulu SantosColaboração e revisão:

      0 comentários

        mostrar mais comentários

        Conseguiu tocar?

        5tocaram0ainda não

        Grave um vídeo tocando Um pro Outro e mande pra gente!

        00:00 / 00:00
        outros vídeos desta música
        repetirqualidadeautomática
        • automática
        Outro vídeos desta música
          00:00 / 00:00
          automática
          • automática
          Acordes para:violão e guitarra
          dificuldadeexibiçõescontribuições
          fecharplay/pause subir/descer velocidade
            acordes
            fechar
            OK
            Feedback