Cifra Club

Um Pro Outro

Lulu Santos

Cifra: Principal
exibições 135.705
Tom: F
[Intro]

[Solo]  F  G7(9)  Dm  G7
        F  G7(9)  C


E|-----------------------17---15---------------------------12--------14----------|
B|--------------13/15/17--------15--18\17---18\17-15\13\15-----13\15-------17\---|
G|----14/12\14-------------------------------------------------------------17\---|
D|-------------------------------------------------------------------------------|
A|-------------------------------------------------------------------------------|
E|-------------------------------------------------------------------------------|

[Riff 1]

E|-----------------------------------------|
B|-----------------------------------------|
G|-----------------------------------------|
D|-5-3-2-----------------------------------|
A|-------5-3-1-0---------------------------|
E|---------------3-1-----------------------|

F             G9            C  [Riff 1]
  Foi bom te ver de novo aqui  
  F        G9          C               F
  A gente tinha mesmo tanta razão pra seguir
          Dm           Bb          D/F#             Gm7        C  [Riff 1]
  Fora o som dessa guitarra a voz sempre rouca e o coração na mão
F           G9         C      [Riff 1]
  Surpresa certa te encontrar
F     G9         C                     F
A tua onda pega bem mesmo em qualquer lugar
             Dm        Bb         D/F#        Gm7       C
  Até na esquina do pecado o que for da vida não nos deterá
Bb           C             Dm   C        Bb  Gm7           A7          Dm
  Nós somos feitos um pro outro,  pode crer por isso é que eu estou aqui
Bb          C      Dm  C      Bb    Gm7       A7       Dm
  E não há lógica que faça desandar o que o acaso decidir
        
[Solo]  F  G7(9)  Dm  G7
        F  G7(9)  C

E|-----------------------------------------------------------------|
B|-----------------------------------------6-5-3---3-5--1p2p3------|
G|----5--5--5------------------------------------5-----------------|
D|-------------3-5-----------3--6h5h6------------------------------|
A|-----------------3p5----3----------------------------------------|
E|-----------------------------------------------------------------|

E|-----------------------------------------------------------------|
B|-----------------------------------------------------------------|
G|----5--5--5------------------------------------------------------|
D|-------------3-5-----------3--6h5h6------------------------------|
A|-----------------3p5----3----------------------------------------|
E|-----------------------------------------------------------------|


F           G9        C  [Riff 1]   F      G9          C              F
  Tanta certeza no olhar,        tamanha pressa de chegar a nenhum lugar
          Dm         Bb           D/F#         Gm7           C
  Só pra ter a sensação de que a vida passa assim como um tufão
Bb           C            Dm  C         Bb  Gm7           A7          Dm
  Nós somos feitos um pro outro, pode crer por isso é que eu estou aqui
Bb          C          Dm   C       Bb  Gm7     A7     Dm
  E não há lógica que faça desandar o que o acaso decidir


[Solo]  F  G7(9)  Dm  G7
        F  G7(9)  C

E|-----------------------------------------------------------------|
B|-----------------------------------------6-5-3---3-5--1p2p3------|
G|----5--5--5------------------------------------5-----------------|
D|-------------3-5-----------3--6h5h6------------------------------|
A|-----------------3p5----3----------------------------------------|
E|-----------------------------------------------------------------|

E|-----------------------------------------------------------------|
B|-----------------------------------------------------------------|
G|----5--5--5------------------------------------------------------|
D|-------------3-5-----------3--6h5h6------------------------------|
A|-----------------3p5----3----------------------------------------|
E|-----------------------------------------------------------------|
Acordes para:
    Composição: Lulu SantosColaboração e revisão:

    0 comentários

      mostrar mais comentários

      Conseguiu tocar?

      5tocaram0ainda não

      Grave um vídeo tocando Um Pro Outro e mande pra gente!

      00:00 / 00:00
      outros vídeos desta música
      repetirqualidadeautomática
      Outro vídeos desta música
        00:00 / 00:00
        automática
        OK