Hino Grêmio Foot-Ball Porto Alegrense

Lupicínio Rodrigues

Composição de: Lupicínio Rodrigues
tom: Bb
 (versão solo)

(refrão)
|----------------------|--------------------|
|----------------------|--------------------|
|-12-9----------9------|-12-9----------9----|
|------12-10-12---12---|------12-10-12---12-|
|--------------------10-|--------------------|
|----------------------|--------------------|
 até a pé...            para o que...

|----------------------------|----------------------|
|---------------9----9-12-10-|---------10-8---6-----|
|-9-10-12-11-12---12---------|-9-10-12------7---9-5-|
|----------------------------|----------------------|
|----------------------------|----------------------|
|----------------------------|----------------------|
 mas o certo...               com o grêmio...

(estrofe)
|-------------------------|----------------------|
|-------------------------|----------------------|
|-------------------------|----------------------|
|-10-10-10-10-12-14-12-10-|-10-10-10-10-12-14-10-|
|-------------------------|----------------------|
|-------------------------|----------------------|
 cinqüenta anos...         tens imortal...

|-------------------------|-------------------------------|
|-------------------------|-------------------------------|
|-------------------------|-------------------------------|
|-10-10-10-10-12-14-12-10-|-10-10-10-10-12-14-15-14-12-10-|
|-------------------------|-------------------------------|
|-------------------------|-------------------------------|
 os feitos da tua...       canta o rio grande...

(após acabar o refrão pela última vez, ao final do hino, acrescente as notas0
|-----|
|-----|
|---5-|
|-5---|
|-----|
|-----|
Página 1 / 1

Letras e título
Acordes e artista

resetar configurações
OK