Cifra Club

Aprenda

Hino Grêmio Foot-Ball Porto Alegrense

Lupicínio Rodrigues

Cifra: Solo (violão e guitarra)
Já pensou em usar uma coleção de roupas do Cifra Club? Responda as perguntas abaixo e nos ajude nessa missão! →
tom: D
(solo)
E |--8--5-----------5--------------------------|
B |--------8--6--8-----8-----------------------|
G |-----------------------5~-------------------|
D |--------------------------------------------|
A |--------------------------------------------|
E |--------------------------------------------|
                          (Até a pé...)
E |--8--5-----------5--------------------------|
B |--------8--6--8-----8~----------------------|
G |--------------------------------------------|
D |--------------------------------------------|
A |--------------------------------------------|
E |--------------------------------------------|
                          (Para o que...)
E |--5--6--8--7--8--9--8--9---12---10~---------|
B |--------------------------------------------|
G |--------------------------------------------|
D |--------------------------------------------|
A |--------------------------------------------|
E |--------------------------------------------|
                           (Mas o certo…)
E |--5--6--8--10--8------6--5------------------|
B |------------------8---------6~--------------|
G |--------------------------------------------|
D |--------------------------------------------|
A |--------------------------------------------|
E |--------------------------------------------|
                           (Com o Grêmio…)
E |------------------7-------------------------|
B |--8--8--8--8--10-----10--9~-----------------|
G |--------------------------------------------|
D |--------------------------------------------|
A |--------------------------------------------|
E |--------------------------------------------|
                           (50 anos…)
E |------------------7-------------------------|
B |--8--8--8--8--10-----8~---------------------|
G |--------------------------------------------|
D |--------------------------------------------|
A |--------------------------------------------|
E |--------------------------------------------|
                           (Tens immortal…)
E |------------------7-------------------------|
B |--8--8--8--8--10-----10--9~-----------------|
G |--------------------------------------------|
D |--------------------------------------------|
A |--------------------------------------------|
E |--------------------------------------------|
                          (Os feitos…)
E |------------------7--8~---------------------|
B |--8--8--8--8--10----------------------------|
G |--------------------------------------------|
D |--------------------------------------------|
A |--------------------------------------------|
E |--------------------------------------------|
                        (Canta o Rio Grande…)
Composição de Lupicínio Rodrigues
Colaboração e revisão:
  • roodrigo
806 exibições
    • ½ Tom
    • A
    • Bb
    • B
    • C
    • Db
    • D
    • Eb
    • E
    • F
    • F#
    • G
    • Ab
  • Adicionar à lista

    0 comentários

    Ver todos os comentários

    Conseguiu tocar?

    0 Tocaram 0 Ainda não

    Grave um vídeo tocando Hino Grêmio Foot-Ball Porto Alegrense e nos envie!

    00:00 / 00:00
    Outros vídeos desta música
    Repetir Qualidade Automático
    Outros vídeos desta música
    00:00 / 00:00
    Automático

    Cifra Club Pro

    Aproveite o Cifra Club com benefícios exclusivos e sem anúncios
    Cifra Club Pro
    Aproveite o Cifra Club com benefícios exclusivos e sem anúncios
    OK