Cifra Club

Por Piedad

Luzbel

Cifra: Principal (violão e guitarra)
tom: Gm
INTRODUCCION

E|----------------------------------------------------------|
B|----------------------------------------------------------|
G|----------------------------------------------------------|
D|----------------------------------------------------------|
A|-5-5-----5-5-5-5-----5-5-5-5-----5-5-5-5-----5-5-5-5------|
E|-3-3--X--3-3-3-3--X--3-3-3-3--X--3-3-3-3--X--3-3-3-3------|

E|----------------------------------------------------------|
B|----------------------------------------------------------|
G|----------------------------------------------------------|
D|----------------------------------------------------------|
A|--5-5-5-5-----5-5-5---6--5--4-----------------------------|
E|--3-3-3-3--X--3-3-3-------------6--6--5--0----------------|

E|----------------------------------------------------------|
B|----------------------------------------------------------|
G|----------------------------------------------------------|
D|----------------------------------------------------------|
A|-5-5-----5-5-5-5-----5-5--3-3-----3--3--3--3--------------|
E|-3-3--X--3-3-3-3--X--3-3--1-1--X--1--1--1--1--------------|

E|----------------------------------------------------------|
B|----------------------------------------------------------|
G|----------------------------------------------------------|
D|--3-3-----3-3-3-3-----3--5-5-5-----5--8-7-----------------|
A|--1-1--X--1-1-1-1--X--1--3-3-3--X--3--6-5-----------------|
E|----------------------------------------------------------|

1.Ensañaron en ti toda la curueldad, eres un sacrificio sin terminar
2.En tus ojos se siente el dolor infinito al ver a tus hijos pelear...


E|----------------------------------------------------------|
B|----------------------------------------------------------|
G|----------------------------------------------------------|
D|----------------------------------------------------------|
A|--5-5-----5-5-5-5-----5-5--3-3-----3-3-3-3----------------|
E|--3-3--X--3-3-3-3--X--3-3--1-1--X--1-1-1-1----------------|

E|----------------------------------------------------------|
B|----------------------------------------------------------|
G|----------------------------------------------------------|
D|--8-8-----8-8-8-8-----8-8-7-7-----7-7---5/7-7-7-7-7-7-----|
A|--6-6--X--6-6-6-6--X--6-6-5-5--X--5-5---3/5-5-5-5-5-5-----|
E|----------------------------------------------------------|


1.En tu espalda abrieron canales de sangre que no alcanza a lavar...
2.Pies y manos clavados en tu madero, me hacen cambiar el camino...


E|-------------------------------------------------------------|
B|-----------------------------------------------------8-(| H.R)-
G|-------------------------------------------------------------|
D|-------------------------------------------------------------|
A|--5-5---3--------5-5---3-----------5-5---3-------5-5---------|
E|--3-3------6-5---3-3------6-5-3-0--3-3------6-5--3-3---------|

E|--------------------------------------------------------------|
B|--------------------------------------------------------------|
G|----------------------------------------3------3--5--3--5--/7-|
D|-------------------------------------------3------------------|
A|------------5-5-5-5--------8-8-8------------------------------|
E|------------3-3-3-3--------6-6-6------------------------------|

G  O

E|-10p6---10p6---10p6---10p6---6p3---6p3---6p3----6p3---|
B|------8------8------8------8-----5-----5-----5------5-|
G|------------------------------------------------------|
D|------------------------------------------------------|
A|------------------------------------------------------|
E|------------------------------------------------------|

E|-6p3---6p3----6p3---6p3----8p5---8p5---8p5---8p5------|
B|-----5-----5------5-----5------7-----7-----7-----7----|
G|------------------------------------------------------|
D|------------------------------------------------------|
A|------------------------------------------------------|
E|------------------------------------------------------|

E|--10p6-----10p6------10p6------10p6-------------------|
B|-------8----------8---------8---------8---------------|
G|------------------------------------------------------|
D|------------------------------------------------------|
A|------------------------------------------------------|
E|------------------------------------------------------|

E|--/15---6--8--5--6--5-----5--6--/8---5--6--5----5--------|
B|-----------------------8---------------------8----*8(10)-|
G|---------------------------------------------------------|
D|---------------------------------------------------------|
A|---------------------------------------------------------|
E|---------------------------------------------------------|

E|---------5-----------------------------------------------|
B|-*8(10)-----8--5--8--5---------5-------------------------|
G|-------------------------*7(9)---------------------------|
D|---------------------------------------------------------|
A|---------------------------------------------------------|
E|---------------------------------------------------------|

E|---------------------------------------------------------|
B|---------------------------------------------------------|
G|---7--5-------7------------------------------------------|
D|-----------9-------9--7----------------------------------|
A|---------------------------7--6| —-6--3--------------------
E|---------------------------------------------------------|

E|---------------------------------------------------------|
B|---------------------------------------------------------|
G|--*5(7)--*5(7)| R(5)--3--*5(7)--3--------------------------
D|---------------------------------------------------------|
A|---------------------------------------------------------|
E|---------------------------------------------------------|

E|---------------------------------------------------------|
B|---------------------------------------------------------|
G|-----------------------------------------3--5--3---------|
D|--7--5-----------------------3--4--5---------------------|
A|-----------5--4--3--4--5---------------------------------|
E|---------------------------------------------------------|

E|-------------------------------------------------------------|
B|--3--6--3----3--*6(8)--3--6--3----3--*6(8)--3--6--3----*6(8)-|
G|-----------5--------------------5--------------------5-------|
D|-------------------------------------------------------------|
A|-------------------------------------------------------------|
E|-------------------------------------------------------------|

E|--------------------15---------------------------------------|
B|--6--3--6--15--15------*18(20)-------------------------------|
G|-------------------------------------------------------------|
D|-------------------------------------------------------------|
A|-------------------------------------------------------------|
E|-------------------------------------------------------------|

E|-----------------------------------------------------------|
B|-----------------------------------------------------------|
G|-----------------------------------------------------------|
D|-----------------------------------------------------------|
A|-----------------------------------------------------------|
E|-----------------------------------------------------------|

E|-----------------------------------------------------------|
B|-----------------------------------------------------------|
G|-----------------------------------------------------------|
D|-----------------------------------------------------------|
A|-----------------------------------------------------------|
E|--3-3-3-3-3-3-3-3-3-3-3-3-3-3-3-3-3-3-3-3-3-3-3-3-3-3| .....
00:00 / 00:00
Outros vídeos desta música
Repetir
Outros vídeos desta música
Compositor não encontrado.
8 exibições
    • ½ Tom
    • Am
    • Bbm
    • Bm
    • Cm
    • C#m
    • Dm
    • Ebm
    • Em
    • Fm
    • F#m
    • Gm
    • G#m
  • Adicionar à lista

    0 comentários

    Ver todos os comentários

    Conseguiu tocar?

    0 Tocaram 0 Ainda não

    Grave um vídeo tocando Por Piedad e nos envie!

    Entre para oCifra Club PRO

    Tenha acesso a benefícios exclusivos no App e no Site

    • Chega de anúncios

    • Prioridade de compra em lançamentos

    • Mais recursos no app do Afinador

    • Atendimento Prioritário

    • Descontos nos produtos Cifra Club

    • Ajude a produzir mais conteúdo

    00:00 / 00:00

    Cifra Club Pro

    Aproveite o Cifra Club com benefícios exclusivos e sem anúncios
    Cifra Club Pro
    Aproveite o Cifra Club com benefícios exclusivos e sem anúncios
    OK