Cifra Club

Aprenda

Saturday Night Special

Lynyrd Skynyrd

Cifra: Principal (violão e guitarra)
Tom: G
-------------------------------------------------------------------------|
---------------------------------------10h12-12-12-10-12h15-12h15-12h15--|
---------7-x--------------------7-x--------------------------------------|
---9-7-9-7-x-9-x-7--7-9---9-7-9-7-x-9------------------------------------|
---9-7-9-----9-x-7--7-9---9-7-9-----9------------------------------------|
-------------------------------------------------------------------------|

---------------------------------------------|
---------------------------------------------|
--------7-x---------------------7-x---7/9----|
--9-7-9-7-x-9-x-7--7-9----9-7-9-7-x-9-7/9----|
--9-7-9-----9-x-7--7-9----9-7-9-----9--------|
---------------------------------------------|

this is the rhythm part
----------------------------------------------------------|
----------------------------------------------------------|
----------------------------------------------------------|
----------------------------------------------------------|
----------5-------5--------------------5--------5---5-7---|
---5-7------7-------7-7-5-7-----5-7------7----7---7-------|

played over the rhythm part
-----------------------------------------------------|
--10b----9b-9b-9b-9b-9b-9b-9b-9b-9b-9b-9b-9b-7-------|
---------9b-9b-9b-9b-9b-9b-9b-9b-9b-9b-9b-9b-7-------|
-----------------------------------------------9-----|
-----------------------------------------------------|
-----------------------------------------------------|
Composição de DeWayne Blackwell / Ed King / Larry Bastian / Ronnie Van Zant
Colaboração e revisão:
  • Leonardo Lamesa
3.361 exibições
    • ½ Tom
    • A
    • Bb
    • B
    • C
    • Db
    • D
    • Eb
    • E
    • F
    • F#
    • G
    • Ab
  • Adicionar à lista

    0 comentários

    Mostrar mais comentários

    Conseguiu tocar?

    0 Tocaram 1 Ainda não

    Grave um vídeo tocando Saturday Night Special e mande pra gente!

    00:00 / 00:00
    outros vídeos desta música
    repetir qualidade Automático
    Outros vídeos desta música
    00:00 / 00:00
    Automático

    Cifra Club Pro

    Aproveite o Cifra Club com benefícios exclusivos e sem anúncios
    7 dias grátis
    Cifra Club Pro
    Aproveite o Cifra Club com benefícios exclusivos e sem anúncios
    7 dias grátis
    OK