Notificações Amigos pendentes

      Lynyrd Skynyrd

      Sweet Home Alabama

      62.758 exibições
      Tom: G
      Intro:
      
      Solo Intro:
      
      -----------------------------------------
      -----------------------------------------
      ---------7~---9p7~-----------------------
      7----------------------------------------
      --9\7/9----------------------------------
      -----------------------------------------
      
      
      Base Intro: 
      D5           C9
      
      --0----------------0---------------------
      ------3--------3-------------------------
      --------2------------0-------------------
      0---0------------------------------------
      -------------3---3-----------------------
      -----------------------------------------
      
                       P.M.         .
      
      G5
      
      --3---------------3----------------------
      ------3-----3/5-------5\3----------------
      --------0-------0---0--------------------
      -----------------------------------------
      -----------------------------------------
      3---3------------------------------------
      
                       P.M.    .   .  
      D5           C9
      
      --0----------------0---------------------
      ------3--------3-------------------------
      --------2------------0-------------------
      0---0------------------------------------
      -------------3---3-----------------------
      -----------------------------------------
      
                       P.M.         .
      G5
      
      --3---------3-------3--------------------
      ------3---------3------------------------
      --------0-----0---0----------------------
      -----------------------------------------
      -----------------------------------------
      3---3------------------------------------
      
                       P.M.  .   .  
      
      Estrofes:
      D5           C9
      
      --0----------------0---------------------
      ------3--------3-------------------------
      --------2------------0-------------------
      0---0------------------------------------
      -------------3---3-----------------------
      -----------------------------------------
      
              P.M.         .
      
      G5
      
      --3---------------3----------------------
      ------3-----3/5-------5\3----------------
      --------0-------0---0--------------------
      -----------------------------------------
      -----------------------------------------
      3---3------------------------------------
      
              P.M.    .   .  
                 
      D5           C9
      
      --0----------------0---------------------
      ------3--------3-------------------------
      --------2------------0-------------------
      0---0------------------------------------
      -------------3---3-----------------------
      -----------------------------------------
      
              P.M.         .
      
      G5
      
      --3---------3-------3--------------------
      ------3---------3------------------------
      --------0-----0---0----------------------
      -----------------------------------------
      -----------------------------------------
      3---3------------------------------------
      
              P.M.  .   .  
      
      Variação 1:
      G5
      
      --3--------------------------------------
      ------3----------------------------------
      --------0-------------0------------------
      -------------------0----2p0--------------
      --------------0h2-----------0h2/---------
      3---3------------------------------------
      
              P.M.  .  
      
      Variação 2:
      G5           F/C C  
      
      --3--------------------------------------
      ------3------1---1-----------------------
      --------0----2---0-----------------------
      -------------3---2-----------------------
      -------------3---3-----------------------
      3---3------------------------------------
      
              P.M. 
      
      Passagem:
      
      -----------------------------------------
      -----------------------------------------
      ------7-7--------5-5----------0-0--------
      ------7-7--------5-5--------0------------
      7h8h9-----9\-5h7-----7\-0h2--------------
      ----------------------------------3~-----
      
      
      Variação:
      
      -----------------------------------------
      ----------------------------------12-----
      ------7-7--------5-5----------0-0-12-----
      ------7-7--------5-5--------0-----12-----
      7h8h9-----9\-5h7-----7\-0h2--------------
      -----------------------------------------
      
                                        H.N.
      Repetição:
      
      -----------------------------------------
      -----------------------------------------
      ------7-7--------5-5----------0-0--------
      ------7-7--------5-5--------0------------0
      7h8h9-----9\-5h7-----7\-0h2----------0h2-
      ----------------------------------3~-----
      
      
      Solo Passagem:
                                                  \0.5/
      
      --------------------------------------------------
      --10b12-12r10p8---5h6h7----------------12---------
      7-----------------------7-----------------7-5-----
      --------------------------7~-7\5~--7--------------
      --------------------------------------------------
      --------------------------------------------------
      
                                         H.N..  . .
      Refrão:
      D5          C5        
      
      -----------------------------------------
      -----------------------------------------
      -----------------------------------------
      7-7-9-7--x--5-5-7-5--x-------------------
      5-5-5-5--x--3-3-3-3--x-------------------
      -----------------------------------------
      
      
      Variação 1:
      G5                  C5
      
      -----------------------------------------
      -----------------------------------------
      --------------------5--------------------
      --------------------5--------------------
      5-5-x-x-7-x-x--5--x-3--------------------
      3-3-x-x-3-x-x--3--x----------------------
      
      
      D5          C5        
      
      -----------------------------------------
      -----------------------------------------
      -----------------------------------------
      7-7-9-7--x--5-5-7-5--x-------------------
      5-5-5-5--x--3-3-3-3--x-------------------
      -----------------------------------------
      
      
      Variação 2:
      G5             C5
      
      -----------------------------------------
      -----------------------------------------
      ---------------5-----5/------------------
      ---------------5-----5/------------------
      5-5-x-x-7---x--3--x--3/------------------
      3-3-x-x-3---x-----x----------------------
      
      
      D5          C5        
      
      -----------------------------------------
      -----------------------------------------
      -----------------------------------------
      7-7-9-7--x--5-5-7-5--x-------------------
      5-5-5-5--x--3-3-3-3--x-------------------
      -----------------------------------------
      
      
      G5                  C5
      
      -----------------------------------------
      -----------------------------------------
      --------------------5--------------------
      --------------------5--------------------
      5-5-x-x-7-x-x--5--x-3--------------------
      3-3-x-x-3-x-x--3--x----------------------
      
      
      D5          C5        
      
      -----------------------------------------
      -----------------------------------------
      -----------------------------------------
      7-7-9-7--x--5-5-7-5--x-------------------
      5-5-5-5--x--3-3-3-3--x-------------------
      -----------------------------------------
      
      
      Variação 3:
      G5             
      
      -----------------------------------------
      -----------------------------------------
      -----------------------------------------
      -----------------------------------------
      5-5-x-x-7--------------------------------
      3-3-x-x-3--------------------------------
      
      
      Variação 4:
      G5
      
      -----------------------------------------
      -----------------------------------------
      -----------------------------------------
      -----------------------------------------
      5-5-x-x-7-x-5-5-5-7-5--------------------
      3-3-x-x-3-x-3-3-3-3-3--------------------
      
      
      Base Solo 1:
      D5               C9              G5 
      
      -----------------------------------------
      ------3-3-------3-3-------3----------3---
      ------2-2-------0-0-------0--0-------0-0-
      0-x-0-0-0-------0-0-------0--0-------0-0-
      ----------3-x-3--------------------------
      --------------------3-x-3------3-x-3-----
      
      P.M .     P.M .     P.M .      P.M .
      
      Base Solo 2:
      D5          C5        
      
      -----------------------------------------
      -----------------------------------------
      -----------------------------------------
      7-7-9-7--x--5-5-7-5--x-------------------
      5-5-5-5--x--3-3-3-3--x-------------------
      -----------------------------------------
      
      
      G5
      
      -----------------------------------------
      -----------------------------------------
      -----------------------------------------
      -----------------------------------------
      5-5-x-x-7--------------------------------
      3-3-x-x-3--------------------------------
      
      
      G5
      
      -----------------------------------------
      -----------------------------------------
      -----------------------------------------
      -----------------------------------------
      5-5-x-x-7-x-5-5-5-7-5--------------------
      3-3-x-x-3-x-3-3-3-3-3--------------------
      
      
      Intro:
      D9 C5 G5
      
      Estrofes:
      D5      C9            G5
        Big wheels keep on turning
      D5          C9             G5
        Carry me home to see my kin
      D5         C9              G5
        Singing songs about the Southland
      D5           C9         G5
        I miss Alabamy once again
      
      And I think it's a sin, yes
      
      Passagem
      
      Estrofes:
      D5                     C9          G5
        Well I heard mister Young sing about her
      D5                   C9           G5
        Well, I heard old Neil put her down
      D5                   C9           G5
        Well, I hope Neil Young will remember
      D5            C9                  G5
        A Southern man don't need him around anyhow
      
      Refrão:
      D5       C5      G5
        Sweet home Alabama
      D5            C5           G5
        Where the skies are so blue
      D5       C5      G5
        Sweet home Alabama
      D5           C5             G5  F/C C
        Lord, I'm coming home to you
      
      Solo 1
      
      Base Solo 1: D5 C9 G5
      
      Estrofes:
      D5           C9                G5         F/C  C
        In Birmingham they love the governor, "boo, boo, boo!"
      D5            C9                G5
        Now we all did what we could do
      D5          C9           G5
        Now Watergate does not    bother me
      D5           C9                G5
        Does your conscience bother you?
      
      Tell the truth
      
      Refrão:
      D5       C5      G5
        Sweet home Alabama
      D5            C5           G5
        Where the skies are so blue
      D5       C5      G5
        Sweet home Alabama
      D5           C5             G5
        Lord, I'm coming home to you
      
      Here I come Alabama
      
      Solo 2:
      
      Base Solo 2: D5  C5  G5 4x
      
      D5    C5      G5
      Ahhh, Ahhhhh, ah, Alabama
      D5    C5      G5
      Ahhh, Ahhhhh, ah, Alabama
      D5    C5      G5
      Ahhh, Ahhhhh, ah, Alabama
      D5    C5      G5
      Ahhh, Ahhhhh, ah, Alabama
      
      Passagem
      
      Estrofes:
      D5             C9                 G5
        Now Muscle Shoals has got the Swampers
      D5                   C9                      G5
        And they've been known to pick a song or two
      D5           C9         G5
        Lord they get me off so much
      D5             C9                    G5
        They pick me up when I'm feeling blue
      
      Now how about you?
      
      
      Refrão:
      D5       C5      G5
        Sweet home Alabama
      D5            C5           G5
        Where the skies are so blue
      D5       C5      G5
        Sweet home Alabama
      D5           C5             G5  F/C C
        Lord, I'm coming home to you
      D5       C5      G5
        Sweet home Alabama
      
      Oh sweet home baby
      D5            C5           G5
        Where the skies are so blue
      
      And the governor's true
      D5       C5      G5
        Sweet home Alabama
            D5            C5             G5
      Lordy    Lord, I'm coming home to you
      
      Solo Piano:  D5 C5 G5
      
      Yea, yea Montgomery's got the answer
        Composição: Ed King / Gary Rossington / Ronnie Van ZantColaboração e revisão:
        • herissonguitar
        • lucas
        • gabriel

        Comentários 0

        140 .
        140 cancelar

        conseguiu tocar?

        0:00 / 0:00
        Esta versão de cifra não é usada na videoaula. Exiba a cifra correta.
        3 versões de baixo exibições contribuição e correção
        1 versão de bateria exibições contribuição e correção
        2 versões de gaita exibições contribuição e correção
        play/pausefechar subir/descer velocidade
        6ª corda E5ª corda A4ª corda D3ª corda G2ª corda B1ª corda E
          acordes
          publicidade
          fechar
          ok