Cifra Club

Sweet Home Alabama

Lynyrd Skynyrd

Tab de baixo: Principal
Introdução

Parte 01

G|--------------------------------------------|
D|--------------------------------------------|
A|-5-5—3-3-----------5-5--3-3----------0-2/---|
E|----------3-3--3-3----------3-3--3-3--------|

Primeira parte

Big wheels keep on turning...

parte 01 ( tocar 2x )

G|--------------------------------------------|
D|--------------------------------------------|
A|-5-5-0-3-3-------------0-2/--5-5--0-3-3-----|
E|-----------0-3-3-0-3-3----------------------|

G|--------------------------------------------|
D|--------------------------------------------|
A|--------------0-2/--------------------------|
E|-0-3-3--0-3-3-------------------------------|

Parte 02 ( Vamp )

G|--------------------------------------------|
D|---------------10-10---------5--------------|
A|-5-5-----10h12-------10\-------------0-2/---|
E|-----5h7-----------------3-3---0-3-3--------|

Parte 03 

Well I heard Mister Young sing about her...

G|--------------------------------------------|
D|--------------------------------------------|
A|-5-5-0-3-3-------------0-2/--5-5--0-3-3-----|
E|-----------0-3-3-0-3-3----------------------|

G|--------------------------------------------|
D|--------------------------------------------|
A|--------------0-2/--------------------------|
E|-0-3-3--0-3-3-------------------------------|

Parte 04

G|--------------------------------------------|
D|--------------------------------------------|
A|-5-5-0-3-3-------------0-2/--5-5--0-3-3-----|
E|-----------0-3-3-0-3-3----------------------|

G|--------------------------------------------|
D|--------------5-----------------------------|
A|------------5---7-5-------------------------|
E|-0-3-3--5h7---------5h7---------------------|

Refrão

Sweet home Alabama...

Parte 01

G|--------------------------------------------|
D|--------------------------------------------|
A|-5-5--3-3-----------3-5-5-3-3---------3-3---|
E|----------3-3--3--3-----------3-3--3--------|

Parte 2

G|--------------------------------------------|
D|-------------------------------------3-2----|
A|-5-5--3-3-----------3-5-5-3-3---------------|
E|----------3-3--3--3-----------3-3--3--------|

Introdução 2 

Parte 01

G|--------------------------------------------|
D|--------------------------------------------|
A|-5-5-0-3-3-------------0-2/--5-5--0-3-3-----|
E|-----------0-3-3-0-3-3----------------------|

G|--------------------------------------------|
D|--------------------------------------------|
A|--------------0-2/--------------------------|
E|-0-3-3--0-3-3-------------------------------|

Segunda parte

In Birmingham, they love the governor boo...

parte 01 

G|--------------------------------------------|
D|-----------------3--------------------------|
A|-5-5-0-3-3----------3-----------------------|
E|-----------0-3-3----------------------------|

G|--------------------------------------------|
D|--------------------------------------------|
A|-5-5-0-3-3-------------0-2/--5-5--0-3-3-----|
E|-----------0-3-3-0-3-3----------------------|

G|--------------------------------------------|
D|--------------------------------------------|
A|--------------0-2/--------------------------|
E|-0-3-3--0-3-3-------------------------------|

Parte 02

G|--------------------------------------------|
D|-------------------------5------------------|
A|-5-5--0-3-3------------5---7-5--------------|
E|------------0-3-3--5h7---------5h7----------|

Segundo Refrão

Sweet home Alabama...

Parte 01

G|--------------------------------------------|
D|--------------------------------------------|
A|-5-5--3-3-----------3-5-5-3-3---------3-3---|
E|----------3-3--3--3-----------3-3--3--------|

Parte 02

G|--------------------------------------------|
D|--------------------------------------------|
A|-5-5--3-3-----------3-5-5-3-3---------------|
E|----------3-3--3--3-----------3-3-3-3-3-3-3-|

Solo de guitarra

Parte 01 ( tocar 8x )

G|--------------------------------------------|
D|------------------------2-2--3-3--2-0-------|
A|-5-5--0-2--3-3------------------------------|
E|---------------0-2--3-3---------------------|

Parte 2 ( tocar 2x Vamp )

G|--------------------------------------------|
D|---------------10-10---------5--------------|
A|-5-5-----10h12-------10\-------------0-2/---|
E|-----5h7-----------------3-3---0-3-3--------|

Terceira parte

Now Muscle Shoals has got the Swampers...

parte 01 

G|--------------------------------------------|
D|--------------------------------------------|
A|-5-5-0-3-3-------------0-2/--5-5--0-3-3-----|
E|-----------0-3-3-0-3-3----------------------|

G|--------------------------------------------|
D|--------------------------------------------|
A|--------------0-2/--------------------------|
E|-0-3-3--0-3-3-------------------------------|

Parte 02

G|--------------------------------------------|
D|--------------------------------------------|
A|-5-5-0-3-3-------------0-2/--5-5--0-3-3-----|
E|-----------0-3-3-0-3-3----------------------|

G|--------------------------------------------|
D|--------------5-----------------------------|
A|------------5---7-5-------------------------|
E|-0-3-3--5h7---------5h7---------------------|

Terceiro Refrão

Sweet home Alabama...

Parte 01

G|--------------------------------------------|
D|--------------------------------------------|
A|-5-5--3-3-----------3-5-5-3-3---------3-3---|
E|----------3-3--3--3-----------3-3--3--------|

G|--------------------------------------------|
D|-------------------------------------3-2----|
A|-5-5--3-3-----------3-5-5-3-3---------------|
E|----------3-3--3--3-----------3-3--3--------|

Parte 02

G|--------------------------------------------|
D|--------------------------------------------|
A|-5-5--3-3-----------3-5-5-3-3---------3-3---|
E|----------3-3--3--3-----------3-3--3--------|

G|--------------------------------------------|
D|--------------------------------------------|
A|-5-5--3-3-----------3-5-5-3-3---------------|
E|----------3-3--3--3-----------3-3--3-3-3-3-3|

Solo de teclado

parte 1 ( tocar 3x )

G|--------------------------------------------|
D|------------------------2-2--3-3--2-0-------|
A|-5-5--0-2--3-3------------------------------|
E|---------------0-2--3-3---------------------|

Parte 2 Final tocar várias vezes ( Fade out )

G|--------------------------------------------|
D|------------------------2-2-----------------|
A|-5-5--0-2--3-3------------------5-7-5--3----|
E|---------------0-2--3-3-----5h7-------------|
00:00 / 00:00
Outros vídeos desta música
Repetir
Outros vídeos desta música
Composição de Ed King / Gary Rossington / Ronnie Van Zant
Colaboração e revisão:
  • Reginaldo Costa
40.500 exibições

0 comentários

Ver todos os comentários

Entre para oCifra Club PRO

Tenha acesso a benefícios exclusivos no App e no Site

  • Chega de anúncios

  • Prioridade de compra em lançamentos

  • Mais recursos no app do Afinador

  • Atendimento Prioritário

  • Descontos nos produtos Cifra Club

  • Ajude a produzir mais conteúdo

00:00 / 00:00
Capítulos
  • Tocando a música
  • Dicas Iniciais / Equipamentos
  • Introdução
  • Primeira Parte
  • Refrão
  • Introdução 2
  • Segundo Parte
  • Segundo Refrão
  • Solo de Guitarra
  • Terceira Parte
  • Solo de Teclado
  • Terceiro Refrão
  • Solo de Teclado (Vamp)
  • Encerramento
  • Ficha Técnica / Erros de Gravação

Cifra Club Pro

Aproveite o Cifra Club com benefícios exclusivos e sem anúncios
Cifra Club Pro
Aproveite o Cifra Club com benefícios exclusivos e sem anúncios
OK