Viñas del amor

Catupecu Machu

Composição de: F. Ruiz Díaz, G. Ruiz Díaz, M. Sosa
tom: Fm

intro
E|-----|------------|-----|------------|-----|------------|-----|------------|-----|
B|-----|------------|-----|------------|-----|------------|-----|------------|-----|
G|-8-8-|------------|-8-8-|------------|-8-8-|------------|-8-8-|------------|-8-8-|
D|-8-8-|------------|-8-8-|------------|-8-8-|------------|-8-8-|------------|-8-8-|
A|-6-6-|------------|-6-6-|------------|-6-6-|------------|-6-6-|------------|-6-6-|
E|-----|------------|-----|------------|-----|------------|-----|------------|-----|

  'Naaa narananaaa naranaana'                             'Naaa narananaaa naranaana'
E|-------------------------------------------------------|---------------------------------------5~-|
B|-------------------------------------------------------|---------------------------------------5~-|
G|-8-8-8--11-11-11--10-10-10-------9---------------------|-8-8-8--11-11-11--10-10-10-------9--------|
D|-8-8-8--11-11-11--10-10-10-----8---8--7h6h7h6--8h7h8h7-|-8-8-8--11-11-11--10-10-10-----8---8------|
A|-6-6-6--9--9--9---8--8--8----6-------------------------|-6-6-6--9--9--9---8--8--8----6------------|
E|-------------------------------------------------------|------------------------------------------|

versos (solo bajo)
E|-------------------------------------------------------------------|
B|-------------------------------------------------------------------|
G|-------------------------------------------------------------------|
D|-------------------------------------------------------------------|
A|-------------------------------------------------------------------|
E|-------------------------------------------------------------------|

  'En las viñas del amor, en las, en las viñas del amor'
E|-------------------------------------------------------|
B|-------------------------------------------------------|
G|-10--10--8--8--6--5--6--5--------5--5--10--8--6--5--10-|
D|-10--10--8--8--6--5--6--5--3--3--5--5--10--8--6--5--10-|
A|-8---8---6--6--4--3--4--3--3--3--3--3--8---6--4--3--8--|
E|---------------------------1--1------------------------|

solo
E|-9-8-7-6-5--5--5h4h5h4-5-4-5-4-3-2-1-----0--1-555------------------|
B|--------------------------------------2-------555--6-5-4-3-2--1----|
G|-------------------------------------------------------------------|
D|-------------------------------------------------------------------|
A|-------------------------------------------------------------------|
E|-------------------------------------------------------------------|

  'Viñas!       del amor!       Viñas!       del amor!'
E|-------|----|----------|----|-------|----|----------|----|
B|-------|----|----------|----|-------|----|----------|----|
G|--8-7--|----|--8----7--|----|--8-7--|----|--8----7--|----|
D|--8-7--|----|--8----7--|----|--8-7--|----|--8----7--|----|
A|--6-5--|----|--6----5--|----|--6-5--|----|--6----5--|----|
E|-------|----|----------|----|-------|----|----------|----|

'y yo te estare amando y te estaremos esperando en esta vida llena de pasion' (solo bajo)
E|---------------------------------------------------------------------------------------|
B|---------------------------------------------------------------------------------------|
G|---------------------------------------------------------------------------------------|
D|---------------------------------------------------------------------------------------|
A|---------------------------------------------------------------------------------------|
E|---------------------------------------------------------------------------------------|
Página 1 / 1

Letras e título
Acordes e artista

resetar configurações
OK