Cifra Club

Silence

Mad Caddies

Tab de baixo: Principal
Intro:
G|---------------------------|-----------------------|
D|---------------------------|-----------------------|
A|---------------------------|--3--3--3--3-----------|
E|--1~~~~~~~~~~---/////////8-|----3--3--3--3--4-3-1--|

Versos:
(0:10 - 1:00)
G|-------------|---------------------------------|
D|-------------|-X3------------------------------|
A|--------43---|-----3333-3--3--3--3--3----------|
E|--1--34---43-|---------------3--3--3--3-4-3-1--|

Pré-Refrão:
(0:39 - 1:38 - 2:19)
G|-------------------------------------------|
D|-------------------------------------------|
A|--44444444-33333333-44444444-3-3-3-3-43----|
E|---------------------------------------43--|

Refrão:
(0:49 - 1:49 - 2:29)
G|----------------------------------------------------------|
D|----------------------------------------------------------|
A|-----------4-4----------4-------------4-4--3~~-3-33-33-3--|
E|--1-1-11-1-----1-1-11-1---4--1-1-11-1---------------------|

Ponte: 
(1:59)
G|------------------------------------------------|
D|------------------------------------------------|
A|-----3---4-3-----3-3---3--3--3--3--3--44--------|
E|-1-4---1-----1-4-----3------3-----3-----44-3-1--|

Outro:
(2:40)
G|---------------------------------|
D|---------------------------------|
A|---------------------------3-----|
E|-1-1-1111-1-1-1111-4-3-1-4--3-1--|
00:00 / 00:00
Outros vídeos desta música
Repetir
Outros vídeos desta música
Composição de Mad Caddies
Colaboração e revisão:
  • Jefferson Sousa
67 exibições

0 comentários

Ver todos os comentários

Conseguiu tocar?

0 Tocaram 0 Ainda não

Grave um vídeo tocando Silence e nos envie!

00:00 / 00:00

Cifra Club Pro

Aproveite o Cifra Club com benefícios exclusivos e sem anúncios
Cifra Club Pro
Aproveite o Cifra Club com benefícios exclusivos e sem anúncios
OK