Cifra Club

Lifeless Dead

Mad Season

Cifra: Principal (violão e guitarra)
Tom: E
Intro:


E|-----------------------------------|(4x)
B|-----------------------------------|
G|-----------------------------------|
D|----5-7-7-5-----------------------|
A|--------------6----0--3-4-5-5-0----|
E|-----------------------------------|


Verso:

"Lifeless dead, that unclean bed..."

E|------------------------------------------------------------------------------------|
B|------------------------------------------------------------------------------------|
G|---------------------------------------------------------------------10-----9\------|
D|------7-7-7--5h7------5h7-5h7--------------5h7-5h7------5h7-5h7-------x-----x-------|
A|-----------------0-0----------0-0-0-0-0-0----------0-0----------0-----8-----7\------|
E|--------------------------------------------------- --------------------------------|

E|------------------------------------------------------------------------------|(5x)
B|------------------------------------------------------------------------------|
G|-----------------------------------------------------10-----9\----------------|
D|------5h7-5h7--------------5h7-5h7------5h7-5h7-------x-----x-----------------|
A|--------------0-0-0-0-0-0----------0-0----------0-----8-----7\----------------|
E|----------------------------------- ------------------------------------------|

E|-------------------------------------------------------------------------------------|
B|-------------------------------------------------------------------------------------|
G|-----------------------------------------------------10-----9\-----------------------|
D|------5h7-5h7--------------5h7-5h7------5h7-5h7-------x-----x------------------------|
A|--------------0-0-0-0-0-0----------0-0----------0-----8-----7\-------2----3-2-0------|
E|----------------------------------- -------------------------------------------------|

  Refrão:

E|-----------------------------------|(4x)
B|-----------------------------------|
G|-----------------------------------|
D|-----7--7--5-----------------------|
A|--------------6\----0-3-3-4-5-0----|
E|-----------------------------------|

  Sequencia Após refrão:

E|-----------------------------------------------------------------------------|(3x)
B|-----------------------------------------------------------------------------|
G|-----------------------------------------------------10-----9\---------------|
D|------5h7-5h7--------------5h7-5h7------5h7-5h7-------x-----x----------------|
A|--------------0-0-0-0-0-0----------0-0----------0-----8-----7\---------------|
E|----------------------------------- -----------------------------------------|

E|-------------------------------------------------------------------------------------|
B|-------------------------------------------------------------------------------------|
G|-----------------------------------------------------10-----9\-----------------------|
D|------5h7-5h7--------------5h7-5h7------5h7-5h7-------x-----x------------------------|
A|--------------0-0-0-0-0-0----------0-0----------0-----8-----7\-------2----3-2-0------|
E|----------------------------------- -------------------------------------------------|

  Refrão:

E|-----------------------------------|(4x)
B|-----------------------------------|
G|-----------------------------------|
D|-----7--7--5-----------------------|
A|--------------6\----0-3-3-4-5-0----|
E|-----------------------------------|

  Queda:

E|---------------------------------------------------------------------------|(3x)
B|---------------------------------------------------------------------------|
G|---------------------------------------------------------------------------|
D|-----12------------11----11------------------------------------------------|
A|-----10-------------9-----9--------12--------11-----11---------------------|
E|-----------------------------------10---------9------9---------------------|

E|---------------------------------------------------------------------------|
B|---------------------------------------------------------------------------|
G|---------------------------------------------------------------------------|
D|-----12------------11----11------------------------------------------------|
A|-----10-------------9-----9--------12--------11-----11----11\--------------|
E|-----------------------------------10---------9------9-----9\--------------|

       Here I´m not Sure...

E|---------------------------------------------------------------------------|
B|---------------------------------------------------------------------------|
G|---------------------------------------------------------------------------|
D|----9--9--9--9--9--9--9--9--9--9--9--9--9--9--9--9\------------------------|
A|----7--7--7--7--7--7--7--7--7--7--7--7--7--7--7--7\------------------------|
E|---------------------------------------------------------------------------|

 Solo:

E|------------------------------------------------------------------------------------|(3x)
B|------------------------------------------------------------------------------------|
G|------------------------------------------------------------------------------------|
D|---------------------------------------------------------------------10-----9\------|
A|------7-7-7--5h7------5h7-5h7--------------5h7-5h7------5h7-5h7-------x-----x-------|
E|-----------------0-0----------0-0-0-0-0-0----------0-0----------0-----8-----7\------|


E|-----------------------------------------------------------------------------------------|
B|-----------------------------------------------------------------------------------------|
G|-----------------------------------------------------------------------------------------|
D|-----------------------------------------------------10-----9\---------------------------|
A|------5h7-5h7--------------5h7-5h7------5h7-5h7-------x-----x----------------------------|
E|--------------0-0-0-0-0-0----------0-0----------0-----8-----7\-----3--------3-2-0--------|

 Final:(Ao vivo)

E|----------------------------------------|
B|----------------------------------------|
G|----------------------------------------|
D|-----7--7--5----------------------------|
A|--------------6\----0---3---4-5-5-0-----|
exibições 4.694
Acordes para:
    Composição: Barrett Martin / John Saunders / Layne Staley / Mike McCready Colaboração e revisão:
    • felipe larsen
    • Felipe Cabral
    • Thales Lima

    0 comentários

    mostrar mais comentários

    Conseguiu tocar?

    0 tocaram 0 ainda não

    Grave um vídeo tocando Lifeless Dead e mande pra gente!

    00:00 / 00:00
    outros vídeos desta música
    repetir qualidade Automático
    Outros vídeos desta música
    00:00 / 00:00
    Automático
    OK