Pray For The Day Live

Magnum

tom: F

                         (transcribed in a hurry by mEeK)



                                                                        
E||----------------------|----------------------|----------------------|
B||----------------------|----------------------|----------------------|
G||--5----7----3/---7----|--5-------------------|-------5--------------|
D||--5----7----3/---7----|--5----5--------------|-------5---------3----|
A||--3----5----1/---5----|--3----3--------------|--0----3--------------|
E||----------------------|------------1----3----|------------5---------|


        2x                                            
--------||--3----|
--------||--3----|
--3~---*||--5----|
--3~---*||--5----|
--1~----||--3----|
--------||--3----|

            
Página 1 / 1

Letras e título
Acordes e artista

resetar configurações
OK