Cifra Club

Coração Infectado

Maiara e Maraisa

Cifra: Principal (violão e guitarra)
Tom: Bb
[Intro] Bb  F

    Bb
E|----------------------------------------------------|
B|-10/11/10--10/8--8/6--6/3----6-6---6----------------|
G|---------------------------7-----7------------------|
D|----------------------------------------------------|
A|----------------------------------------------------|
E|----------------------------------------------------|

     F
E|----------------------------------------------------|
B|-10h11-10-10/8--8/6-6/3/6--6-8-6--------------------|
G|-10------------------------------5-7----------------|
D|----------------------------------------------------|
A|----------------------------------------------------|
E|----------------------------------------------------|

[Primeira Parte]

   Bb
Depois de uma garrafa

Uma boca sem graça
    F
Saudade e sofrimento

Essa sou eu por dentro
    Gm
Beijei, mas já tô sem ninguém do lado
     Eb
Pra relacionamento, eu tô fechado

[Segunda Parte]

        Bb
E tranquei meu sorriso

Enquanto cê não volta
                     F
De boca em boca vou me distraindo
                                             Gm
Fim de noite, carência com álcool é mistura de risco
                   Eb
E todo santo dia é isso

[Refrão]

 Bb
Taca álcool nesse coração infectado
 F
Tô de fogo e, pra piorar, apaixonado
   Gm
A cada porre, invento um amor pra tapar o buraco
     Eb
Vai faltar copo e cama pra consertar o estrago

 Bb
Taca álcool nesse coração infectado
 F
Tô de fogo e, pra piorar, apaixonado
   Gm
A cada porre, invento um amor pra tapar o buraco
     Eb
Vai faltar copo e cama pra consertar o estrago
 Bb          F  Gm  Eb
Taca álcool!

[Segunda Parte]

        Bb
E tranquei meu sorriso

Enquanto cê não volta
                     F
De boca em boca vou me distraindo
                                             Gm
Fim de noite, carência com álcool é mistura de risco
                   Eb
E todo santo dia é isso

[Refrão]

 Bb
Taca álcool nesse coração infectado
 F
Tô de fogo e, pra piorar, apaixonado
   Gm
A cada porre, invento um amor pra tapar o buraco
     Eb
Vai faltar copo e cama pra consertar o estrago

 Bb
Taca álcool nesse coração infectado
 F
Tô de fogo e, pra piorar, apaixonado
   Gm
A cada porre, invento um amor pra tapar o buraco
     Eb
Vai faltar copo e cama pra consertar o estrago
 Bb          F
Taca álcool!

   Gm
A cada porre, invento um amor pra tapar o buraco
     Eb
Vai faltar copo e cama pra consertar o estrago

Taca álcool!
exibições 9.040
Acordes para:

    0 comentários

    mostrar mais comentários

    Conseguiu tocar?

    3 tocaram 2 ainda não

    Grave um vídeo tocando Coração Infectado e mande pra gente!

    00:00 / 00:00
    outros vídeos desta música
    repetir qualidade Automático
    Outros vídeos desta música
    00:00 / 00:00
    Automático
    OK