Enviar cifraEntrar

Cruzando Os Dedos

Maiara e Maraisa

Cifra: Principal
exibições 67.669
Tom: E
Intro:


E|---------------------------------------------------------|
B|-5h7-5-7/10-9~-------------------------------------------|
G|---------------------------------------------------------|
D|-6h7-6---------------------------------------------------|
A|---------------------------------------------------------|
E|---------------------------------------------------------|


E

Primeira Parte:

     A9
Você acha que me tem a hora que cê quer
                            E
Aceito isso só porque eu te amo

Por enquanto ainda te amo

       A9
Já sabe que eu tô sofrendo

Mesmo assim faz o que quer
                           C#m
Toma cuidado um dia eu canso
             Am
E seu eu cansar

Refrão 2x:

                 E
Vai cruzando os dedos pra eu não encontrar

Outra boca, outro beijo, outra cama
          C#m
Outro alguém que vai te superar

Um dia eu troco esse medo de te perder
         A9
Pela coragem de arriscar
        Am
Vai cruzando os dedos pra eu não me apaixonar

Base Solo: E  C#m  B  A9

Solo:


            E             C#m   B     A9
E|---------------------------------------------------------|
B|-5-7-5-9/10-9--5-7-5-9/10-9--7h9p7-5---------------------|
G|---------------------------------------------------------|
D|-6-7-6-9/11-9--6-7-6-9/11-9------------------------------|
A|---------------------------------------------------------|
E|---------------------------------------------------------|


Primeira Parte - Com Variação:

     A9
Você acha que me tem a hora que cê quer
                            C#m
Aceito isso só porque eu te amo

Por enquanto ainda te amo

B           A9
  Já sabe que eu tô sofrendo

Mesmo assim faz o que quer
                 B         C#m
Toma cuidado um dia eu canso
             Am
E seu eu cansar

Refrão 2x:

                 E
Vai cruzando os dedos pra eu não encontrar

Outra boca, outro beijo, outra cama
          C#m
Outro alguém que vai te superar

Um dia eu troco esse medo de te perder
          A9
Pela coragem de arriscar
        Am
Vai cruzando os dedos pra eu não me apaixonar


E|-7-5-4---------------------------------------
B|---------------------------------------------
G|-8-6-4---------------------------------------
D|---------------------------------------------
A|---------------------------------------------
E|---------------------------------------------


( E )
  • 1
  • 2
  • 3
  • 4
  • 5
  • 6
  • 7
  • 8
  • 9
  • 10
  • 11
  • 12
    Acordes para:
      Composição: Maiara e Maraisa Colaboração e revisão:

      0 comentários

        mostrar mais comentários

        Conseguiu tocar?

        3tocaram0ainda não

        Grave um vídeo tocando Cruzando Os Dedos e mande pra gente!

        00:00 / 00:00
        outros vídeos desta música
        repetirqualidadeautomática
        • automática
        Outro vídeos desta música
          00:00 / 00:00
          automática
          • automática
          Acordes para:violão e guitarra
          dificuldadeexibiçõescontribuições
          fecharplay/pause subir/descer velocidade
            acordes
            fechar
            OK
            Feedback