Cifra Club

Eu Não Vou Namorar (part. Marília Mendonça)

Maiara e Maraisa

Cifra: Principal (violão e guitarra)
tom: Am
[Intro] Dm  Am  C  G

[Tab - Solo Intro]

Parte 1 de 2
E|------------------------------------------|
B|-6/8-8-8-8--8p6-5---5/6--6-8-8p5----------|
G|------------------7--------------7-5------|
D|------------------------------------------|
A|------------------------------------------|
E|------------------------------------------|

Parte 2 de 2
E|------------------------------------------|
B|---3-3h5--8-6--5h6p5----------------------|
G|-5-------------------7--------------------|
D|------------------------------------------|
A|------------------------------------------|
E|------------------------------------------|

[Primeira Parte]
 
    Dm
Eu tive um amor na minha vida 
     Am
Que não foi pra frente
   C
Depois disso aí desisti 
                G
De papinho de pra sempre
    Dm
Daquele dia em diante 
      Am
Eu jurei pra Deus
     C
Que dentro de um ano 
                 G
Namoro nenhum pegava eu
 
[Pré-Refrão]

    Dm 
Mas eu não contava que a sua boca ia 
 Am
Vir de encontro a minha
      C
E querer me arrastar pra sua vida 
       G 
Com a língua
       F                    G
Calma aí coração não se anima!
                          Am
Um block resolve a nossa vida!
 
[Refrão]

                         Dm
Eu tô babando ouvindo um áudio 
                  Am
Sorrindo pro celular
       C               G
Tá na hora de te bloquear
                         Dm
Tô de plantão nos seus stories
              Am
Sondando onde    cê tá
       C               G
Tá na hora de te bloquear
 
                         Dm
Eu tô babando ouvindo um áudio 
                  Am
Sorrindo pro celular
       C               G
Tá na hora de te bloquear
                         Dm
Tô de plantão nos seus stories
              Am
Sondando onde    cê tá
       C               G
Tá na hora de te bloquear

Eu não vou

Eu não vou
        Dm          Am  C  G
Eu não vou namorar, ah

[Solo] Dm  Am  C  G 

[Tab - Solo]

Parte 1 de 4
E|------------------------------------------|
B|-6-8p5-5-------3-3h5--8-6-5h6p5-----------|
G|----------5--5------------------7---------|
D|------------------------------------------|
A|------------------------------------------|
E|------------------------------------------|

Parte 2 de 4
E|-1/3-3-3-3--3p1-0----1-----1--------------|
B|------------------3----3-3---3-3----------|
G|---------------------2-----2--------------|
D|-----------------------3-3---3-3----------|
A|------------------------------------------|
E|------------------------------------------|

Parte 3 de 4
E|-1-3--3p0---------------------------------|
B|----------3-1--1-3-3h5--8-6-5h6p5---------|
G|-2--------------------------------7-------|
D|------------------------------------------|
A|------------------------------------------|
E|------------------------------------------|

Parte 4 de 4
E|-1/3-3-3-3--3/1-0-------------------------|
B|------------------3-6---------------------|
G|-2/4-4-4-4--4\2-0-------------------------|
D|------------------3-7---------------------|
A|------------------------------------------|
E|------------------------------------------|

[Pré-Refrão]

    Dm 
Mas eu não contava que a sua boca ia 
 Am
Vir de encontro a minha
      C
E querer me arrastar pra sua vida 
       G 
Com a língua
       F                    G
Calma aí coração não se anima!
                          Am
Um block resolve a nossa vida!
 
[Refrão]

                         Dm
Eu tô babando ouvindo um áudio 
                  Am
Sorrindo pro celular
       C               G
Tá na hora de te bloquear
                         Dm
Tô de plantão nos seus stories
              Am
Sondando onde    cê tá
       C               G
Tá na hora de te bloquear
 
                         Dm
Eu tô babando ouvindo um áudio 
                  Am
Sorrindo pro celular
       C               G
Tá na hora de te bloquear
                         Dm
Tô de plantão nos seus stories
              Am
Sondando onde    cê tá
       C               G
Tá na hora de te bloquear

Eu não vou

Eu não vou
        Dm          Am  C  G
Eu não vou namorar, ah
              Dm
Eu não vou namorar
00:00 / 00:00
Outros vídeos desta música
Repetir
Outros vídeos desta música
Compositor não encontrado.
Colaboração e revisão:
  • Rafael Brito
  • Richard Ulmann
  • Thales Rayan
1.061 exibições
    • ½ Tom
    • Am
    • Bbm
    • Bm
    • Cm
    • C#m
    • Dm
    • Ebm
    • Em
    • Fm
    • F#m
    • Gm
    • G#m
  • Adicionar à lista

    0 comentários

    Ver todos os comentários

    Conseguiu tocar?

    0 Tocaram 0 Ainda não

    Grave um vídeo tocando Eu Não Vou Namorar (part. Marília Mendonça) e nos envie!

    Entre para oCifra Club PRO

    Tenha acesso a benefícios exclusivos no App e no Site

    • Chega de anúncios

    • Prioridade de compra em lançamentos

    • Mais recursos no app do Afinador

    • Atendimento Prioritário

    • Descontos nos produtos Cifra Club

    • Ajude a produzir mais conteúdo

    00:00 / 00:00

    Cifra Club Pro

    Aproveite o Cifra Club com benefícios exclusivos e sem anúncios
    Cifra Club Pro
    Aproveite o Cifra Club com benefícios exclusivos e sem anúncios
    OK